  0
SECTION
  2
HEADER
  9
$ACADVER
  1
AC1009
  9
$INSBASE
 10
0.0
 20
0.0
 30
0.0
  9
$EXTMIN
 10
-7.206
 20
-3.628
 30
-0.001
  9
$EXTMAX
 10
62.754
 20
53.472
 30
37.934
  9
$LIMMIN
 10
-6.001
 20
-0.369
  9
$LIMMAX
 10
0.714
 20
6.102
  9
$ORTHOMODE
 70
     1
  9
$REGENMODE
 70
     1
  9
$FILLMODE
 70
     1
  9
$QTEXTMODE
 70
     0
  9
$MIRRTEXT
 70
     1
  9
$DRAGMODE
 70
     2
  9
$LTSCALE
 40
1.0
  9
$OSMODE
 70
     0
  9
$ATTMODE
 70
     1
  9
$TEXTSIZE
 40
0.2
  9
$TRACEWID
 40
0.05
  9
$TEXTSTYLE
  7
STANDARD
  9
$CLAYER
  8
0
  9
$CELTYPE
  6
BYLAYER
  9
$CECOLOR
 62
   256
  9
$DIMSCALE
 40
1.0
  9
$DIMASZ
 40
0.18
  9
$DIMEXO
 40
0.063
  9
$DIMDLI
 40
0.38
  9
$DIMRND
 40
0.0
  9
$DIMDLE
 40
0.0
  9
$DIMEXE
 40
0.18
  9
$DIMTP
 40
0.0
  9
$DIMTM
 40
0.0
  9
$DIMTXT
 40
0.18
  9
$DIMCEN
 40
0.09
  9
$DIMTSZ
 40
0.0
  9
$DIMTOL
 70
     0
  9
$DIMLIM
 70
     0
  9
$DIMTIH
 70
     1
  9
$DIMTOH
 70
     1
  9
$DIMSE1
 70
     0
  9
$DIMSE2
 70
     0
  9
$DIMTAD
 70
     0
  9
$DIMZIN
 70
     0
  9
$DIMBLK
  1

  9
$DIMASO
 70
     1
  9
$DIMSHO
 70
     0
  9
$DIMPOST
  1

  9
$DIMAPOST
  1

  9
$DIMALT
 70
     0
  9
$DIMALTD
 70
     2
  9
$DIMALTF
 40
25.4
  9
$DIMLFAC
 40
1.0
  9
$DIMTOFL
 70
     0
  9
$DIMTVP
 40
0.0
  9
$DIMTIX
 70
     0
  9
$DIMSOXD
 70
     0
  9
$DIMSAH
 70
     0
  9
$DIMBLK1
  1

  9
$DIMBLK2
  1

  9
$DIMSTYLE
  2
*UNNAMED
  9
$DIMCLRD
 70
     0
  9
$DIMCLRE
 70
     0
  9
$DIMCLRT
 70
     0
  9
$DIMTFAC
 40
1.0
  9
$DIMGAP
 40
0.09
  9
$LUNITS
 70
     2
  9
$LUPREC
 70
     4
  9
$SKETCHINC
 40
0.1
  9
$FILLETRAD
 40
0.0
  9
$AUNITS
 70
     0
  9
$AUPREC
 70
     0
  9
$MENU
  1
acad
  9
$ELEVATION
 40
0.0
  9
$PELEVATION
 40
0.0
  9
$THICKNESS
 40
0.0
  9
$LIMCHECK
 70
     0
  9
$BLIPMODE
 70
     1
  9
$CHAMFERA
 40
0.0
  9
$CHAMFERB
 40
0.0
  9
$SKPOLY
 70
     0
  9
$TDCREATE
 40
2449389.824069907
  9
$TDUPDATE
 40
2450441.163911226
  9
$TDINDWG
 40
0.0781013889
  9
$TDUSRTIMER
 40
0.0781013889
  9
$USRTIMER
 70
     1
  9
$ANGBASE
 50
0.0
  9
$ANGDIR
 70
     0
  9
$PDMODE
 70
     0
  9
$PDSIZE
 40
0.0
  9
$PLINEWID
 40
0.0
  9
$COORDS
 70
     0
  9
$SPLFRAME
 70
     0
  9
$SPLINETYPE
 70
     6
  9
$SPLINESEGS
 70
     8
  9
$ATTDIA
 70
     0
  9
$ATTREQ
 70
     1
  9
$HANDLING
 70
     1
  9
$HANDSEED
  5
6E9B
  9
$SURFTAB1
 70
     6
  9
$SURFTAB2
 70
     6
  9
$SURFTYPE
 70
     6
  9
$SURFU
 70
     6
  9
$SURFV
 70
     6
  9
$UCSNAME
  2

  9
$UCSORG
 10
0.0
 20
0.0
 30
0.0
  9
$UCSXDIR
 10
1.0
 20
0.0
 30
0.0
  9
$UCSYDIR
 10
0.0
 20
1.0
 30
0.0
  9
$PUCSNAME
  2

  9
$PUCSORG
 10
0.0
 20
0.0
 30
0.0
  9
$PUCSXDIR
 10
1.0
 20
0.0
 30
0.0
  9
$PUCSYDIR
 10
0.0
 20
1.0
 30
0.0
  9
$USERI1
 70
     0
  9
$USERI2
 70
     0
  9
$USERI3
 70
     0
  9
$USERI4
 70
     0
  9
$USERI5
 70
     0
  9
$USERR1
 40
0.0
  9
$USERR2
 40
0.0
  9
$USERR3
 40
0.0
  9
$USERR4
 40
0.0
  9
$USERR5
 40
0.0
  9
$WORLDVIEW
 70
     1
  9
$SHADEDGE
 70
     3
  9
$SHADEDIF
 70
   100
  9
$TILEMODE
 70
     1
  9
$MAXACTVP
 70
    16
  9
$PINSBASE
 10
0.0
 20
0.0
 30
0.0
  9
$PLIMCHECK
 70
     0
  9
$PEXTMIN
 10
1.000E+20
 20
1.000E+20
 30
1.000E+20
  9
$PEXTMAX
 10
-1.000E+20
 20
-1.000E+20
 30
-1.000E+20
  9
$PLIMMIN
 10
0.0
 20
0.0
  9
$PLIMMAX
 10
12.0
 20
9.0
  9
$UNITMODE
 70
     0
  9
$VISRETAIN
 70
     0
  9
$PLINEGEN
 70
     0
  9
$PSLTSCALE
 70
     1
  9
$TREEDEPTH
 70
  3020
  9
$DWGCODEPAGE
  3
iso8859-1
  0
ENDSEC
  0
SECTION
  2
TABLES
  0
TABLE
  2
VPORT
 70
     2
  0
VPORT
  2
*ACTIVE
 70
     0
 10
0.0
 20
0.0
 11
1.0
 21
1.0
 12
15.307378
 22
-6.017584
 13
0.0
 23
0.0
 14
1.0
 24
1.0
 15
0.0
 25
0.0
 16
1.0
 26
1.0
 36
1.0
 17
0.0
 27
0.0
 37
0.0
 40
82.373066
 41
1.511078
 42
50.0
 43
0.0
 44
0.0
 50
0.0
 51
0.0
 71
     0
 72
   100
 73
     1
 74
     1
 75
     0
 76
     0
 77
     0
 78
     0
  0
ENDTAB
  0
TABLE
  2
LTYPE
 70
     1
  0
LTYPE
  2
CONTINUOUS
 70
    64
  3
Solid line
 72
    65
 73
     0
 40
0.0
  0
ENDTAB
  0
TABLE
  2
LAYER
 70
     4
  0
LAYER
  2
0
 70
     0
 62
     7
  6
CONTINUOUS
  0
LAYER
  2
12PIA05-PEDALS
 70
    64
 62
     7
  6
CONTINUOUS
  0
LAYER
  2
12PIA05-MAIN
 70
    64
 62
     1
  6
CONTINUOUS
  0
LAYER
  2
12PIA05-LEGS
 70
    64
 62
     4
  6
CONTINUOUS
  0
ENDTAB
  0
TABLE
  2
STYLE
 70
     1
  0
STYLE
  2
STANDARD
 70
     0
 40
0.0
 41
1.0
 50
0.0
 71
     0
 42
0.2
  3
txt
  4

  0
ENDTAB
  0
TABLE
  2
VIEW
 70
     0
  0
ENDTAB
  0
TABLE
  2
UCS
 70
     0
  0
ENDTAB
  0
TABLE
  2
APPID
 70
     3
  0
APPID
  2
ACAD
 70
    64
  0
APPID
  2
AVE_FINISH
 70
    64
  0
APPID
  2
AVE_ENTITY_MATERIAL
 70
    64
  0
ENDTAB
  0
TABLE
  2
DIMSTYLE
 70
     0
  0
ENDTAB
  0
ENDSEC
  0
SECTION
  2
BLOCKS
  0
ENDSEC
  0
SECTION
  2
ENTITIES
  0
POLYLINE
  8
12PIA05-PEDALS
  5
64F3
 66
     1
 10
0.0
 20
0.0
 30
0.0
 70
    64
 71
    56
 72
    91
1001
AVE_ENTITY_MATERIAL
1002
{
1000

1002
{
1071
        0
1070
     0
1070
     0
1002
{
1070
     0
1070
     0
1070
     0
1040
0.0
1002
}
1070
     0
1070
     0
1002
{
1002
}
1002
}
1002
{
1002
}
1002
{
1002
}
1011
0.0
1021
0.0
1031
0.0
1011
1.0
1021
0.0
1031
0.0
1011
0.0
1021
1.0
1031
0.0
1011
0.0
1021
0.0
1031
1.0
1002
}
1001
AVE_FINISH
1002
{
1070
     0
1005
65E1
1002
}
  0
VERTEX
  8
12PIA05-PEDALS
  5
64F4
 10
50.788
 20
21.948
 30
1.153
 70
   192
  0
VERTEX
  8
12PIA05-PEDALS
  5
64F5
 10
53.358
 20
21.785
 30
1.153
 70
   192
  0
VERTEX
  8
12PIA05-PEDALS
  5
64F6
 10
53.358
 20
21.785
 30
1.489
 70
   192
  0
VERTEX
  8
12PIA05-PEDALS
  5
64F7
 10
50.788
 20
21.948
 30
1.489
 70
   192
  0
VERTEX
  8
12PIA05-PEDALS
  5
64F8
 10
53.939
 20
21.157
 30
1.153
 70
   192
  0
VERTEX
  8
12PIA05-PEDALS
  5
64F9
 10
53.939
 20
21.157
 30
1.489
 70
   192
  0
VERTEX
  8
12PIA05-PEDALS
  5
64FA
 10
55.058
 20
21.188
 30
1.153
 70
   192
  0
VERTEX
  8
12PIA05-PEDALS
  5
64FB
 10
55.058
 20
21.188
 30
1.489
 70
   192
  0
VERTEX
  8
12PIA05-PEDALS
  5
64FC
 10
55.68
 20
21.628
 30
1.153
 70
   192
  0
VERTEX
  8
12PIA05-PEDALS
  5
64FD
 10
55.68
 20
21.628
 30
1.489
 70
   192
  0
VERTEX
  8
12PIA05-PEDALS
  5
64FE
 10
55.804
 20
22.35
 30
1.153
 70
   192
  0
VERTEX
  8
12PIA05-PEDALS
  5
64FF
 10
55.804
 20
22.35
 30
1.489
 70
   192
  0
VERTEX
  8
12PIA05-PEDALS
  5
6500
 10
55.514
 20
22.979
 30
1.153
 70
   192
  0
VERTEX
  8
12PIA05-PEDALS
  5
6501
 10
55.514
 20
22.979
 30
1.489
 70
   192
  0
VERTEX
  8
12PIA05-PEDALS
  5
6502
 10
54.726
 20
23.292
 30
1.153
 70
   192
  0
VERTEX
  8
12PIA05-PEDALS
  5
6503
 10
54.726
 20
23.292
 30
1.489
 70
   192
  0
VERTEX
  8
12PIA05-PEDALS
  5
6504
 10
50.788
 20
23.292
 30
1.153
 70
   192
  0
VERTEX
  8
12PIA05-PEDALS
  5
6505
 10
50.788
 20
23.292
 30
1.489
 70
   192
  0
VERTEX
  8
12PIA05-PEDALS
  5
6506
 10
50.788
 20
24.3
 30
1.153
 70
   192
  0
VERTEX
  8
12PIA05-PEDALS
  5
6507
 10
54.58
 20
23.964
 30
1.153
 70
   192
  0
VERTEX
  8
12PIA05-PEDALS
  5
6508
 10
54.58
 20
23.964
 30
1.489
 70
   192
  0
VERTEX
  8
12PIA05-PEDALS
  5
6509
 10
50.788
 20
24.3
 30
1.489
 70
   192
  0
VERTEX
  8
12PIA05-PEDALS
  5
650A
 10
55.423
 20
24.3
 30
1.153
 70
   192
  0
VERTEX
  8
12PIA05-PEDALS
  5
650B
 10
55.423
 20
24.3
 30
1.489
 70
   192
  0
VERTEX
  8
12PIA05-PEDALS
  5
650C
 10
55.844
 20
24.972
 30
1.153
 70
   192
  0
VERTEX
  8
12PIA05-PEDALS
  5
650D
 10
55.844
 20
24.972
 30
1.489
 70
   192
  0
VERTEX
  8
12PIA05-PEDALS
  5
650E
 10
55.423
 20
25.644
 30
1.153
 70
   192
  0
VERTEX
  8
12PIA05-PEDALS
  5
650F
 10
55.423
 20
25.644
 30
1.489
 70
   192
  0
VERTEX
  8
12PIA05-PEDALS
  5
6510
 10
54.58
 20
25.98
 30
1.153
 70
   192
  0
VERTEX
  8
12PIA05-PEDALS
  5
6511
 10
54.58
 20
25.98
 30
1.489
 70
   192
  0
VERTEX
  8
12PIA05-PEDALS
  5
6512
 10
50.788
 20
25.644
 30
1.153
 70
   192
  0
VERTEX
  8
12PIA05-PEDALS
  5
6513
 10
50.788
 20
25.644
 30
1.489
 70
   192
  0
VERTEX
  8
12PIA05-PEDALS
  5
6514
 10
53.358
 20
28.16
 30
1.153
 70
   192
  0
VERTEX
  8
12PIA05-PEDALS
  5
6515
 10
50.788
 20
27.996
 30
1.153
 70
   192
  0
VERTEX
  8
12PIA05-PEDALS
  5
6516
 10
53.358
 20
28.16
 30
1.489
 70
   192
  0
VERTEX
  8
12PIA05-PEDALS
  5
6517
 10
50.788
 20
27.996
 30
1.489
 70
   192
  0
VERTEX
  8
12PIA05-PEDALS
  5
6518
 10
53.939
 20
28.788
 30
1.153
 70
   192
  0
VERTEX
  8
12PIA05-PEDALS
  5
6519
 10
53.939
 20
28.788
 30
1.489
 70
   192
  0
VERTEX
  8
12PIA05-PEDALS
  5
651A
 10
55.058
 20
28.757
 30
1.153
 70
   192
  0
VERTEX
  8
12PIA05-PEDALS
  5
651B
 10
55.058
 20
28.757
 30
1.489
 70
   192
  0
VERTEX
  8
12PIA05-PEDALS
  5
651C
 10
55.68
 20
28.318
 30
1.153
 70
   192
  0
VERTEX
  8
12PIA05-PEDALS
  5
651D
 10
55.68
 20
28.318
 30
1.489
 70
   192
  0
VERTEX
  8
12PIA05-PEDALS
  5
651E
 10
55.804
 20
27.595
 30
1.153
 70
   192
  0
VERTEX
  8
12PIA05-PEDALS
  5
651F
 10
55.804
 20
27.595
 30
1.489
 70
   192
  0
VERTEX
  8
12PIA05-PEDALS
  5
6520
 10
55.514
 20
26.966
 30
1.153
 70
   192
  0
VERTEX
  8
12PIA05-PEDALS
  5
6521
 10
55.514
 20
26.966
 30
1.489
 70
   192
  0
VERTEX
  8
12PIA05-PEDALS
  5
6522
 10
54.726
 20
26.652
 30
1.153
 70
   192
  0
VERTEX
  8
12PIA05-PEDALS
  5
6523
 10
54.726
 20
26.652
 30
1.489
 70
   192
  0
VERTEX
  8
12PIA05-PEDALS
  5
6524
 10
50.788
 20
26.652
 30
1.153
 70
   192
  0
VERTEX
  8
12PIA05-PEDALS
  5
6525
 10
50.788
 20
26.652
 30
1.489
 70
   192
  0
VERTEX
  8
12PIA05-PEDALS
  5
6526
 10
53.358
 20
28.159
 30
1.489
 70
   192
  0
VERTEX
  8
12PIA05-PEDALS
  5
6527
 10
53.939
 20
28.787
 30
1.489
 70
   192
  0
VERTEX
  8
12PIA05-PEDALS
  5
6528
 10
55.058
 20
28.756
 30
1.489
 70
   192
  0
VERTEX
  8
12PIA05-PEDALS
  5
6529
 10
55.68
 20
28.316
 30
1.489
 70
   192
  0
VERTEX
  8
12PIA05-PEDALS
  5
652A
 10
55.804
 20
27.594
 30
1.489
 70
   192
  0
VERTEX
  8
12PIA05-PEDALS
  5
652B
 10
55.514
 20
26.965
 30
1.489
 70
   192
  0
VERTEX
  8
12PIA05-PEDALS
  5
652C
 10
0.0
 20
0.0
 30
0.0
 70
   128
 71
     1
 72
     2
 73
    -3
  0
VERTEX
  8
12PIA05-PEDALS
  5
652D
 10
0.0
 20
0.0
 30
0.0
 70
   128
 71
     3
 72
     4
 73
    -1
  0
VERTEX
  8
12PIA05-PEDALS
  5
652E
 10
0.0
 20
0.0
 30
0.0
 70
   128
 71
     2
 72
     5
 73
    -6
  0
VERTEX
  8
12PIA05-PEDALS
  5
652F
 10
0.0
 20
0.0
 30
0.0
 70
   128
 71
     6
 72
     3
 73
    -2
  0
VERTEX
  8
12PIA05-PEDALS
  5
6530
 10
0.0
 20
0.0
 30
0.0
 70
   128
 71
     5
 72
     7
 73
    -8
  0
VERTEX
  8
12PIA05-PEDALS
  5
6531
 10
0.0
 20
0.0
 30
0.0
 70
   128
 71
     8
 72
     6
 73
    -5
  0
VERTEX
  8
12PIA05-PEDALS
  5
6532
 10
0.0
 20
0.0
 30
0.0
 70
   128
 71
     7
 72
     9
 73
   -10
  0
VERTEX
  8
12PIA05-PEDALS
  5
6533
 10
0.0
 20
0.0
 30
0.0
 70
   128
 71
    10
 72
     8
 73
    -7
  0
VERTEX
  8
12PIA05-PEDALS
  5
6534
 10
0.0
 20
0.0
 30
0.0
 70
   128
 71
     9
 72
    11
 73
   -12
  0
VERTEX
  8
12PIA05-PEDALS
  5
6535
 10
0.0
 20
0.0
 30
0.0
 70
   128
 71
    12
 72
    10
 73
    -9
  0
VERTEX
  8
12PIA05-PEDALS
  5
6536
 10
0.0
 20
0.0
 30
0.0
 70
   128
 71
    11
 72
    13
 73
   -14
  0
VERTEX
  8
12PIA05-PEDALS
  5
6537
 10
0.0
 20
0.0
 30
0.0
 70
   128
 71
    14
 72
    12
 73
   -11
  0
VERTEX
  8
12PIA05-PEDALS
  5
6538
 10
0.0
 20
0.0
 30
0.0
 70
   128
 71
    13
 72
    15
 73
   -16
  0
VERTEX
  8
12PIA05-PEDALS
  5
6539
 10
0.0
 20
0.0
 30
0.0
 70
   128
 71
    16
 72
    14
 73
   -13
  0
VERTEX
  8
12PIA05-PEDALS
  5
653A
 10
0.0
 20
0.0
 30
0.0
 70
   128
 71
    15
 72
    17
 73
   -18
  0
VERTEX
  8
12PIA05-PEDALS
  5
653B
 10
0.0
 20
0.0
 30
0.0
 70
   128
 71
    18
 72
    16
 73
   -15
  0
VERTEX
  8
12PIA05-PEDALS
  5
653C
 10
0.0
 20
0.0
 30
0.0
 70
   128
 71
    17
 72
     1
 73
    -4
  0
VERTEX
  8
12PIA05-PEDALS
  5
653D
 10
0.0
 20
0.0
 30
0.0
 70
   128
 71
     4
 72
    18
 73
   -17
  0
VERTEX
  8
12PIA05-PEDALS
  5
653E
 10
0.0
 20
0.0
 30
0.0
 70
   128
 71
    19
 72
    20
 73
   -21
  0
VERTEX
  8
12PIA05-PEDALS
  5
653F
 10
0.0
 20
0.0
 30
0.0
 70
   128
 71
    21
 72
    22
 73
   -19
  0
VERTEX
  8
12PIA05-PEDALS
  5
6540
 10
0.0
 20
0.0
 30
0.0
 70
   128
 71
    20
 72
    23
 73
   -24
  0
VERTEX
  8
12PIA05-PEDALS
  5
6541
 10
0.0
 20
0.0
 30
0.0
 70
   128
 71
    24
 72
    21
 73
   -20
  0
VERTEX
  8
12PIA05-PEDALS
  5
6542
 10
0.0
 20
0.0
 30
0.0
 70
   128
 71
    23
 72
    25
 73
   -26
  0
VERTEX
  8
12PIA05-PEDALS
  5
6543
 10
0.0
 20
0.0
 30
0.0
 70
   128
 71
    26
 72
    24
 73
   -23
  0
VERTEX
  8
12PIA05-PEDALS
  5
6544
 10
0.0
 20
0.0
 30
0.0
 70
   128
 71
    25
 72
    27
 73
   -28
  0
VERTEX
  8
12PIA05-PEDALS
  5
6545
 10
0.0
 20
0.0
 30
0.0
 70
   128
 71
    28
 72
    26
 73
   -25
  0
VERTEX
  8
12PIA05-PEDALS
  5
6546
 10
0.0
 20
0.0
 30
0.0
 70
   128
 71
    27
 72
    29
 73
   -30
  0
VERTEX
  8
12PIA05-PEDALS
  5
6547
 10
0.0
 20
0.0
 30
0.0
 70
   128
 71
    30
 72
    28
 73
   -27
  0
VERTEX
  8
12PIA05-PEDALS
  5
6548
 10
0.0
 20
0.0
 30
0.0
 70
   128
 71
    29
 72
    31
 73
   -32
  0
VERTEX
  8
12PIA05-PEDALS
  5
6549
 10
0.0
 20
0.0
 30
0.0
 70
   128
 71
    32
 72
    30
 73
   -29
  0
VERTEX
  8
12PIA05-PEDALS
  5
654A
 10
0.0
 20
0.0
 30
0.0
 70
   128
 71
    31
 72
    19
 73
   -22
  0
VERTEX
  8
12PIA05-PEDALS
  5
654B
 10
0.0
 20
0.0
 30
0.0
 70
   128
 71
    22
 72
    32
 73
   -31
  0
VERTEX
  8
12PIA05-PEDALS
  5
654C
 10
0.0
 20
0.0
 30
0.0
 70
   128
 71
    33
 72
   -34
 73
    35
  0
VERTEX
  8
12PIA05-PEDALS
  5
654D
 10
0.0
 20
0.0
 30
0.0
 70
   128
 71
    36
 72
   -35
 73
    34
  0
VERTEX
  8
12PIA05-PEDALS
  5
654E
 10
0.0
 20
0.0
 30
0.0
 70
   128
 71
    37
 72
   -33
 73
    38
  0
VERTEX
  8
12PIA05-PEDALS
  5
654F
 10
0.0
 20
0.0
 30
0.0
 70
   128
 71
    35
 72
   -38
 73
    33
  0
VERTEX
  8
12PIA05-PEDALS
  5
6550
 10
0.0
 20
0.0
 30
0.0
 70
   128
 71
    39
 72
   -37
 73
    40
  0
VERTEX
  8
12PIA05-PEDALS
  5
6551
 10
0.0
 20
0.0
 30
0.0
 70
   128
 71
    38
 72
   -40
 73
    37
  0
VERTEX
  8
12PIA05-PEDALS
  5
6552
 10
0.0
 20
0.0
 30
0.0
 70
   128
 71
    41
 72
   -39
 73
    42
  0
VERTEX
  8
12PIA05-PEDALS
  5
6553
 10
0.0
 20
0.0
 30
0.0
 70
   128
 71
    40
 72
   -42
 73
    39
  0
VERTEX
  8
12PIA05-PEDALS
  5
6554
 10
0.0
 20
0.0
 30
0.0
 70
   128
 71
    43
 72
   -41
 73
    44
  0
VERTEX
  8
12PIA05-PEDALS
  5
6555
 10
0.0
 20
0.0
 30
0.0
 70
   128
 71
    42
 72
   -44
 73
    41
  0
VERTEX
  8
12PIA05-PEDALS
  5
6556
 10
0.0
 20
0.0
 30
0.0
 70
   128
 71
    45
 72
   -43
 73
    46
  0
VERTEX
  8
12PIA05-PEDALS
  5
6557
 10
0.0
 20
0.0
 30
0.0
 70
   128
 71
    44
 72
   -46
 73
    43
  0
VERTEX
  8
12PIA05-PEDALS
  5
6558
 10
0.0
 20
0.0
 30
0.0
 70
   128
 71
    47
 72
   -45
 73
    48
  0
VERTEX
  8
12PIA05-PEDALS
  5
6559
 10
0.0
 20
0.0
 30
0.0
 70
   128
 71
    46
 72
   -48
 73
    45
  0
VERTEX
  8
12PIA05-PEDALS
  5
655A
 10
0.0
 20
0.0
 30
0.0
 70
   128
 71
    49
 72
   -47
 73
    50
  0
VERTEX
  8
12PIA05-PEDALS
  5
655B
 10
0.0
 20
0.0
 30
0.0
 70
   128
 71
    48
 72
   -50
 73
    47
  0
VERTEX
  8
12PIA05-PEDALS
  5
655C
 10
0.0
 20
0.0
 30
0.0
 70
   128
 71
    34
 72
   -49
 73
    36
  0
VERTEX
  8
12PIA05-PEDALS
  5
655D
 10
0.0
 20
0.0
 30
0.0
 70
   128
 71
    50
 72
   -36
 73
    49
  0
VERTEX
  8
12PIA05-PEDALS
  5
655E
 10
0.0
 20
0.0
 30
0.0
 70
   128
 71
    21
 72
    24
 73
    22
  0
VERTEX
  8
12PIA05-PEDALS
  5
655F
 10
0.0
 20
0.0
 30
0.0
 70
   128
 71
    24
 72
    26
 73
    22
  0
VERTEX
  8
12PIA05-PEDALS
  5
6560
 10
0.0
 20
0.0
 30
0.0
 70
   128
 71
    26
 72
    28
 73
    22
  0
VERTEX
  8
12PIA05-PEDALS
  5
6561
 10
0.0
 20
0.0
 30
0.0
 70
   128
 71
    28
 72
    30
 73
    22
  0
VERTEX
  8
12PIA05-PEDALS
  5
6562
 10
0.0
 20
0.0
 30
0.0
 70
   128
 71
    30
 72
    32
 73
    22
  0
VERTEX
  8
12PIA05-PEDALS
  5
6563
 10
0.0
 20
0.0
 30
0.0
 70
   128
 71
    21
 72
    24
 73
    22
  0
VERTEX
  8
12PIA05-PEDALS
  5
6564
 10
0.0
 20
0.0
 30
0.0
 70
   128
 71
    24
 72
    26
 73
    22
  0
VERTEX
  8
12PIA05-PEDALS
  5
6565
 10
0.0
 20
0.0
 30
0.0
 70
   128
 71
    26
 72
    28
 73
    22
  0
VERTEX
  8
12PIA05-PEDALS
  5
6566
 10
0.0
 20
0.0
 30
0.0
 70
   128
 71
    28
 72
    30
 73
    22
  0
VERTEX
  8
12PIA05-PEDALS
  5
6567
 10
0.0
 20
0.0
 30
0.0
 70
   128
 71
    30
 72
    32
 73
    22
  0
VERTEX
  8
12PIA05-PEDALS
  5
6568
 10
0.0
 20
0.0
 30
0.0
 70
   128
 71
     4
 72
     3
 73
    16
  0
VERTEX
  8
12PIA05-PEDALS
  5
6569
 10
0.0
 20
0.0
 30
0.0
 70
   128
 71
     3
 72
     6
 73
    16
  0
VERTEX
  8
12PIA05-PEDALS
  5
656A
 10
0.0
 20
0.0
 30
0.0
 70
   128
 71
     6
 72
     8
 73
    16
  0
VERTEX
  8
12PIA05-PEDALS
  5
656B
 10
0.0
 20
0.0
 30
0.0
 70
   128
 71
     8
 72
    10
 73
    16
  0
VERTEX
  8
12PIA05-PEDALS
  5
656C
 10
0.0
 20
0.0
 30
0.0
 70
   128
 71
    10
 72
    12
 73
    16
  0
VERTEX
  8
12PIA05-PEDALS
  5
656D
 10
0.0
 20
0.0
 30
0.0
 70
   128
 71
    12
 72
    14
 73
    16
  0
VERTEX
  8
12PIA05-PEDALS
  5
656E
 10
0.0
 20
0.0
 30
0.0
 70
   128
 71
    18
 72
     4
 73
    16
  0
VERTEX
  8
12PIA05-PEDALS
  5
656F
 10
0.0
 20
0.0
 30
0.0
 70
   128
 71
     4
 72
     3
 73
    16
  0
VERTEX
  8
12PIA05-PEDALS
  5
6570
 10
0.0
 20
0.0
 30
0.0
 70
   128
 71
     3
 72
     6
 73
    16
  0
VERTEX
  8
12PIA05-PEDALS
  5
6571
 10
0.0
 20
0.0
 30
0.0
 70
   128
 71
     6
 72
     8
 73
    16
  0
VERTEX
  8
12PIA05-PEDALS
  5
6572
 10
0.0
 20
0.0
 30
0.0
 70
   128
 71
     8
 72
    10
 73
    16
  0
VERTEX
  8
12PIA05-PEDALS
  5
6573
 10
0.0
 20
0.0
 30
0.0
 70
   128
 71
    10
 72
    12
 73
    16
  0
VERTEX
  8
12PIA05-PEDALS
  5
6574
 10
0.0
 20
0.0
 30
0.0
 70
   128
 71
    12
 72
    14
 73
    16
  0
VERTEX
  8
12PIA05-PEDALS
  5
6575
 10
0.0
 20
0.0
 30
0.0
 70
   128
 71
    18
 72
     4
 73
    16
  0
VERTEX
  8
12PIA05-PEDALS
  5
6576
 10
0.0
 20
0.0
 30
0.0
 70
   128
 71
    51
 72
    36
 73
    48
  0
VERTEX
  8
12PIA05-PEDALS
  5
6577
 10
0.0
 20
0.0
 30
0.0
 70
   128
 71
    52
 72
    51
 73
    48
  0
VERTEX
  8
12PIA05-PEDALS
  5
6578
 10
0.0
 20
0.0
 30
0.0
 70
   128
 71
    53
 72
    52
 73
    48
  0
VERTEX
  8
12PIA05-PEDALS
  5
6579
 10
0.0
 20
0.0
 30
0.0
 70
   128
 71
    54
 72
    53
 73
    48
  0
VERTEX
  8
12PIA05-PEDALS
  5
657A
 10
0.0
 20
0.0
 30
0.0
 70
   128
 71
    55
 72
    54
 73
    48
  0
VERTEX
  8
12PIA05-PEDALS
  5
657B
 10
0.0
 20
0.0
 30
0.0
 70
   128
 71
    56
 72
    55
 73
    48
  0
VERTEX
  8
12PIA05-PEDALS
  5
657C
 10
0.0
 20
0.0
 30
0.0
 70
   128
 71
    36
 72
    50
 73
    48
  0
VERTEX
  8
12PIA05-PEDALS
  5
657D
 10
0.0
 20
0.0
 30
0.0
 70
   128
 71
    51
 72
    36
 73
    48
  0
VERTEX
  8
12PIA05-PEDALS
  5
657E
 10
0.0
 20
0.0
 30
0.0
 70
   128
 71
    52
 72
    51
 73
    48
  0
VERTEX
  8
12PIA05-PEDALS
  5
657F
 10
0.0
 20
0.0
 30
0.0
 70
   128
 71
    53
 72
    52
 73
    48
  0
VERTEX
  8
12PIA05-PEDALS
  5
6580
 10
0.0
 20
0.0
 30
0.0
 70
   128
 71
    54
 72
    53
 73
    48
  0
VERTEX
  8
12PIA05-PEDALS
  5
6581
 10
0.0
 20
0.0
 30
0.0
 70
   128
 71
    55
 72
    54
 73
    48
  0
VERTEX
  8
12PIA05-PEDALS
  5
6582
 10
0.0
 20
0.0
 30
0.0
 70
   128
 71
    56
 72
    55
 73
    48
  0
VERTEX
  8
12PIA05-PEDALS
  5
6583
 10
0.0
 20
0.0
 30
0.0
 70
   128
 71
    36
 72
    50
 73
    48
  0
VERTEX
  8
12PIA05-PEDALS
  5
6584
 10
0.0
 20
0.0
 30
0.0
 70
   128
 71
    19
 72
    23
 73
    20
  0
VERTEX
  8
12PIA05-PEDALS
  5
6585
 10
0.0
 20
0.0
 30
0.0
 70
   128
 71
    25
 72
    23
 73
   -19
  0
VERTEX
  8
12PIA05-PEDALS
  5
6586
 10
0.0
 20
0.0
 30
0.0
 70
   128
 71
    19
 72
    27
 73
   -25
  0
SEQEND
  8
12PIA05-PEDALS
  5
6587
  0
POLYLINE
  8
12PIA05-LEGS
  5
65FA
 66
     1
 10
0.0
 20
0.0
 30
0.0
 70
    64
 71
    38
 72
    28
1001
AVE_ENTITY_MATERIAL
1002
{
1000

1002
{
1071
        0
1070
     0
1070
     0
1002
{
1070
     0
1070
     0
1070
     0
1040
0.0
1002
}
1070
     0
1070
     0
1002
{
1002
}
1002
}
1002
{
1002
}
1002
{
1002
}
1011
0.0
1021
0.0
1031
0.0
1011
1.0
1021
0.0
1031
0.0
1011
0.0
1021
1.0
1031
0.0
1011
0.0
1021
0.0
1031
1.0
1002
}
1001
AVE_FINISH
1002
{
1070
     0
1005
663E
1002
}
  0
VERTEX
  8
12PIA05-LEGS
  5
65FB
 10
-4.934
 20
14.102
 30
2.004
 70
   192
  0
VERTEX
  8
12PIA05-LEGS
  5
65FC
 10
-5.632
 20
14.93
 30
19.787
 70
   192
  0
VERTEX
  8
12PIA05-LEGS
  5
65FD
 10
-5.632
 20
13.519
 30
21.17
 70
   192
  0
VERTEX
  8
12PIA05-LEGS
  5
65FE
 10
-5.632
 20
14.93
 30
21.17
 70
   192
  0
VERTEX
  8
12PIA05-LEGS
  5
65FF
 10
-5.632
 20
12.109
 30
21.17
 70
   192
  0
VERTEX
  8
12PIA05-LEGS
  5
6600
 10
-5.632
 20
12.109
 30
19.787
 70
   192
  0
VERTEX
  8
12PIA05-LEGS
  5
6601
 10
-4.934
 20
12.937
 30
2.004
 70
   192
  0
VERTEX
  8
12PIA05-LEGS
  5
6602
 10
-3.029
 20
14.102
 30
2.004
 70
   192
  0
VERTEX
  8
12PIA05-LEGS
  5
6603
 10
-2.332
 20
14.93
 30
19.787
 70
   192
  0
VERTEX
  8
12PIA05-LEGS
  5
6604
 10
-2.332
 20
13.519
 30
21.17
 70
   192
  0
VERTEX
  8
12PIA05-LEGS
  5
6605
 10
-2.332
 20
14.93
 30
21.17
 70
   192
  0
VERTEX
  8
12PIA05-LEGS
  5
6606
 10
-2.332
 20
12.109
 30
21.17
 70
   192
  0
VERTEX
  8
12PIA05-LEGS
  5
6607
 10
-2.332
 20
12.109
 30
19.787
 70
   192
  0
VERTEX
  8
12PIA05-LEGS
  5
6608
 10
-3.029
 20
12.937
 30
2.004
 70
   192
  0
VERTEX
  8
12PIA05-LEGS
  5
6609
 10
54.202
 20
-1.128
 30
19.788
 70
   192
  0
VERTEX
  8
12PIA05-LEGS
  5
660A
 10
54.202
 20
-1.128
 30
21.172
 70
   192
  0
VERTEX
  8
12PIA05-LEGS
  5
660B
 10
54.202
 20
-3.628
 30
19.788
 70
   192
  0
VERTEX
  8
12PIA05-LEGS
  5
660C
 10
54.202
 20
-3.628
 30
21.172
 70
   192
  0
VERTEX
  8
12PIA05-LEGS
  5
660D
 10
50.639
 20
-1.128
 30
19.788
 70
   192
  0
VERTEX
  8
12PIA05-LEGS
  5
660E
 10
50.639
 20
-1.128
 30
21.172
 70
   192
  0
VERTEX
  8
12PIA05-LEGS
  5
660F
 10
50.639
 20
-3.628
 30
21.172
 70
   192
  0
VERTEX
  8
12PIA05-LEGS
  5
6610
 10
50.639
 20
-3.628
 30
19.788
 70
   192
  0
VERTEX
  8
12PIA05-LEGS
  5
6611
 10
53.156
 20
-1.608
 30
2.005
 70
   192
  0
VERTEX
  8
12PIA05-LEGS
  5
6612
 10
53.156
 20
-3.148
 30
2.005
 70
   192
  0
VERTEX
  8
12PIA05-LEGS
  5
6613
 10
51.684
 20
-1.608
 30
2.005
 70
   192
  0
VERTEX
  8
12PIA05-LEGS
  5
6614
 10
51.684
 20
-3.148
 30
2.005
 70
   192
  0
VERTEX
  8
12PIA05-LEGS
  5
6615
 10
54.202
 20
52.884
 30
19.788
 70
   192
  0
VERTEX
  8
12PIA05-LEGS
  5
6616
 10
54.202
 20
52.884
 30
21.172
 70
   192
  0
VERTEX
  8
12PIA05-LEGS
  5
6617
 10
54.202
 20
50.384
 30
19.788
 70
   192
  0
VERTEX
  8
12PIA05-LEGS
  5
6618
 10
54.202
 20
50.384
 30
21.172
 70
   192
  0
VERTEX
  8
12PIA05-LEGS
  5
6619
 10
53.156
 20
52.404
 30
2.005
 70
   192
  0
VERTEX
  8
12PIA05-LEGS
  5
661A
 10
53.156
 20
50.864
 30
2.005
 70
   192
  0
VERTEX
  8
12PIA05-LEGS
  5
661B
 10
51.684
 20
50.864
 30
2.005
 70
   192
  0
VERTEX
  8
12PIA05-LEGS
  5
661C
 10
50.639
 20
52.884
 30
19.788
 70
   192
  0
VERTEX
  8
12PIA05-LEGS
  5
661D
 10
50.639
 20
50.384
 30
19.788
 70
   192
  0
VERTEX
  8
12PIA05-LEGS
  5
661E
 10
51.684
 20
52.404
 30
2.005
 70
   192
  0
VERTEX
  8
12PIA05-LEGS
  5
661F
 10
50.639
 20
52.884
 30
21.172
 70
   192
  0
VERTEX
  8
12PIA05-LEGS
  5
6620
 10
50.639
 20
50.384
 30
21.172
 70
   192
  0
VERTEX
  8
12PIA05-LEGS
  5
6621
 10
0.0
 20
0.0
 30
0.0
 70
   128
 71
     1
 72
     2
 73
     3
  0
VERTEX
  8
12PIA05-LEGS
  5
6622
 10
0.0
 20
0.0
 30
0.0
 70
   128
 71
     2
 72
     4
 73
     3
  0
VERTEX
  8
12PIA05-LEGS
  5
6623
 10
0.0
 20
0.0
 30
0.0
 70
   128
 71
     4
 72
     5
 73
     3
  0
VERTEX
  8
12PIA05-LEGS
  5
6624
 10
0.0
 20
0.0
 30
0.0
 70
   128
 71
     5
 72
     6
 73
     3
  0
VERTEX
  8
12PIA05-LEGS
  5
6625
 10
0.0
 20
0.0
 30
0.0
 70
   128
 71
     6
 72
     7
 73
     3
  0
VERTEX
  8
12PIA05-LEGS
  5
6626
 10
0.0
 20
0.0
 30
0.0
 70
   128
 71
     7
 72
     1
 73
     3
  0
VERTEX
  8
12PIA05-LEGS
  5
6627
 10
0.0
 20
0.0
 30
0.0
 70
   128
 71
     8
 72
     9
 73
    10
  0
VERTEX
  8
12PIA05-LEGS
  5
6628
 10
0.0
 20
0.0
 30
0.0
 70
   128
 71
     9
 72
    11
 73
    10
  0
VERTEX
  8
12PIA05-LEGS
  5
6629
 10
0.0
 20
0.0
 30
0.0
 70
   128
 71
    11
 72
    12
 73
    10
  0
VERTEX
  8
12PIA05-LEGS
  5
662A
 10
0.0
 20
0.0
 30
0.0
 70
   128
 71
    12
 72
    13
 73
    10
  0
VERTEX
  8
12PIA05-LEGS
  5
662B
 10
0.0
 20
0.0
 30
0.0
 70
   128
 71
    13
 72
    14
 73
    10
  0
VERTEX
  8
12PIA05-LEGS
  5
662C
 10
0.0
 20
0.0
 30
0.0
 70
   128
 71
    14
 72
     8
 73
    10
  0
VERTEX
  8
12PIA05-LEGS
  5
662D
 10
0.0
 20
0.0
 30
0.0
 70
   128
 71
    15
 72
   -16
 73
    17
  0
VERTEX
  8
12PIA05-LEGS
  5
662E
 10
0.0
 20
0.0
 30
0.0
 70
   128
 71
    18
 72
   -17
 73
    16
  0
VERTEX
  8
12PIA05-LEGS
  5
662F
 10
0.0
 20
0.0
 30
0.0
 70
   128
 71
    19
 72
    20
 73
   -21
  0
VERTEX
  8
12PIA05-LEGS
  5
6630
 10
0.0
 20
0.0
 30
0.0
 70
   128
 71
    21
 72
    22
 73
   -19
  0
VERTEX
  8
12PIA05-LEGS
  5
6631
 10
0.0
 20
0.0
 30
0.0
 70
   128
 71
    23
 72
   -15
 73
    24
  0
VERTEX
  8
12PIA05-LEGS
  5
6632
 10
0.0
 20
0.0
 30
0.0
 70
   128
 71
    17
 72
   -24
 73
    15
  0
VERTEX
  8
12PIA05-LEGS
  5
6633
 10
0.0
 20
0.0
 30
0.0
 70
   128
 71
    25
 72
    19
 73
   -22
  0
VERTEX
  8
12PIA05-LEGS
  5
6634
 10
0.0
 20
0.0
 30
0.0
 70
   128
 71
    22
 72
    26
 73
   -25
  0
VERTEX
  8
12PIA05-LEGS
  5
6635
 10
0.0
 20
0.0
 30
0.0
 70
   128
 71
    27
 72
   -28
 73
    29
  0
VERTEX
  8
12PIA05-LEGS
  5
6636
 10
0.0
 20
0.0
 30
0.0
 70
   128
 71
    30
 72
   -29
 73
    28
  0
VERTEX
  8
12PIA05-LEGS
  5
6637
 10
0.0
 20
0.0
 30
0.0
 70
   128
 71
   -31
 72
    29
 73
    32
  0
VERTEX
  8
12PIA05-LEGS
  5
6638
 10
0.0
 20
0.0
 30
0.0
 70
   128
 71
    27
 72
   -29
 73
    31
  0
VERTEX
  8
12PIA05-LEGS
  5
6639
 10
0.0
 20
0.0
 30
0.0
 70
   128
 71
   -33
 72
    34
 73
    35
  0
VERTEX
  8
12PIA05-LEGS
  5
663A
 10
0.0
 20
0.0
 30
0.0
 70
   128
 71
    33
 72
    36
 73
   -34
  0
VERTEX
  8
12PIA05-LEGS
  5
663B
 10
0.0
 20
0.0
 30
0.0
 70
   128
 71
    34
 72
    37
 73
   -38
  0
VERTEX
  8
12PIA05-LEGS
  5
663C
 10
0.0
 20
0.0
 30
0.0
 70
   128
 71
    38
 72
    35
 73
   -34
  0
SEQEND
  8
12PIA05-LEGS
  5
663D
  0
POLYLINE
  8
12PIA05-LEGS
  5
6657
 66
     1
 10
0.0
 20
0.0
 30
0.0
 70
    64
 71
    44
 72
    40
1001
AVE_ENTITY_MATERIAL
1002
{
1000

1002
{
1071
        0
1070
     0
1070
     0
1002
{
1070
     0
1070
     0
1070
     0
1040
0.0
1002
}
1070
     0
1070
     0
1002
{
1002
}
1002
}
1002
{
1002
}
1002
{
1002
}
1011
0.0
1021
0.0
1031
0.0
1011
1.0
1021
0.0
1031
0.0
1011
0.0
1021
1.0
1031
0.0
1011
0.0
1021
0.0
1031
1.0
1002
}
1001
AVE_FINISH
1002
{
1070
     0
1005
66AD
1002
}
  0
VERTEX
  8
12PIA05-LEGS
  5
6658
 10
-5.632
 20
14.93
 30
21.17
 70
   192
  0
VERTEX
  8
12PIA05-LEGS
  5
6659
 10
-5.632
 20
14.93
 30
19.787
 70
   192
  0
VERTEX
  8
12PIA05-LEGS
  5
665A
 10
-2.332
 20
14.93
 30
19.787
 70
   192
  0
VERTEX
  8
12PIA05-LEGS
  5
665B
 10
-2.332
 20
14.93
 30
21.17
 70
   192
  0
VERTEX
  8
12PIA05-LEGS
  5
665C
 10
-4.998
 20
14.102
 30
2.004
 70
   192
  0
VERTEX
  8
12PIA05-LEGS
  5
665D
 10
-2.965
 20
14.102
 30
2.004
 70
   192
  0
VERTEX
  8
12PIA05-LEGS
  5
665E
 10
-5.632
 20
12.109
 30
19.787
 70
   192
  0
VERTEX
  8
12PIA05-LEGS
  5
665F
 10
-2.965
 20
12.937
 30
2.004
 70
   192
  0
VERTEX
  8
12PIA05-LEGS
  5
6660
 10
-2.332
 20
12.109
 30
19.787
 70
   192
  0
VERTEX
  8
12PIA05-LEGS
  5
6661
 10
-4.998
 20
12.937
 30
2.004
 70
   192
  0
VERTEX
  8
12PIA05-LEGS
  5
6662
 10
-5.632
 20
12.109
 30
21.17
 70
   192
  0
VERTEX
  8
12PIA05-LEGS
  5
6663
 10
-2.332
 20
12.109
 30
21.17
 70
   192
  0
VERTEX
  8
12PIA05-LEGS
  5
6664
 10
50.639
 20
-1.128
 30
19.788
 70
   192
  0
VERTEX
  8
12PIA05-LEGS
  5
6665
 10
50.639
 20
-1.128
 30
21.172
 70
   192
  0
VERTEX
  8
12PIA05-LEGS
  5
6666
 10
52.42
 20
-1.128
 30
21.172
 70
   192
  0
VERTEX
  8
12PIA05-LEGS
  5
6667
 10
52.421
 20
-1.128
 30
21.172
 70
   192
  0
VERTEX
  8
12PIA05-LEGS
  5
6668
 10
54.202
 20
-1.128
 30
21.172
 70
   192
  0
VERTEX
  8
12PIA05-LEGS
  5
6669
 10
54.202
 20
-1.128
 30
19.788
 70
   192
  0
VERTEX
  8
12PIA05-LEGS
  5
666A
 10
50.639
 20
-3.628
 30
19.788
 70
   192
  0
VERTEX
  8
12PIA05-LEGS
  5
666B
 10
50.639
 20
-3.628
 30
21.172
 70
   192
  0
VERTEX
  8
12PIA05-LEGS
  5
666C
 10
52.42
 20
-3.628
 30
21.172
 70
   192
  0
VERTEX
  8
12PIA05-LEGS
  5
666D
 10
54.202
 20
-3.628
 30
21.172
 70
   192
  0
VERTEX
  8
12PIA05-LEGS
  5
666E
 10
54.202
 20
-3.628
 30
19.788
 70
   192
  0
VERTEX
  8
12PIA05-LEGS
  5
666F
 10
52.421
 20
-3.628
 30
21.172
 70
   192
  0
VERTEX
  8
12PIA05-LEGS
  5
6670
 10
51.684
 20
-3.1
 30
2.005
 70
   192
  0
VERTEX
  8
12PIA05-LEGS
  5
6671
 10
53.156
 20
-3.1
 30
2.005
 70
   192
  0
VERTEX
  8
12PIA05-LEGS
  5
6672
 10
53.156
 20
-1.656
 30
2.005
 70
   192
  0
VERTEX
  8
12PIA05-LEGS
  5
6673
 10
51.684
 20
-1.656
 30
2.005
 70
   192
  0
VERTEX
  8
12PIA05-LEGS
  5
6674
 10
53.156
 20
52.356
 30
2.005
 70
   192
  0
VERTEX
  8
12PIA05-LEGS
  5
6675
 10
54.202
 20
52.884
 30
19.788
 70
   192
  0
VERTEX
  8
12PIA05-LEGS
  5
6676
 10
52.421
 20
52.884
 30
21.172
 70
   192
  0
VERTEX
  8
12PIA05-LEGS
  5
6677
 10
54.202
 20
52.884
 30
21.172
 70
   192
  0
VERTEX
  8
12PIA05-LEGS
  5
6678
 10
52.42
 20
52.884
 30
21.172
 70
   192
  0
VERTEX
  8
12PIA05-LEGS
  5
6679
 10
50.639
 20
52.884
 30
21.172
 70
   192
  0
VERTEX
  8
12PIA05-LEGS
  5
667A
 10
50.639
 20
52.884
 30
19.788
 70
   192
  0
VERTEX
  8
12PIA05-LEGS
  5
667B
 10
51.684
 20
52.356
 30
2.005
 70
   192
  0
VERTEX
  8
12PIA05-LEGS
  5
667C
 10
53.156
 20
50.912
 30
2.005
 70
   192
  0
VERTEX
  8
12PIA05-LEGS
  5
667D
 10
54.202
 20
50.384
 30
19.788
 70
   192
  0
VERTEX
  8
12PIA05-LEGS
  5
667E
 10
52.421
 20
50.384
 30
21.172
 70
   192
  0
VERTEX
  8
12PIA05-LEGS
  5
667F
 10
54.202
 20
50.384
 30
21.172
 70
   192
  0
VERTEX
  8
12PIA05-LEGS
  5
6680
 10
52.42
 20
50.384
 30
21.172
 70
   192
  0
VERTEX
  8
12PIA05-LEGS
  5
6681
 10
50.639
 20
50.384
 30
21.172
 70
   192
  0
VERTEX
  8
12PIA05-LEGS
  5
6682
 10
50.639
 20
50.384
 30
19.788
 70
   192
  0
VERTEX
  8
12PIA05-LEGS
  5
6683
 10
51.684
 20
50.912
 30
2.005
 70
   192
  0
VERTEX
  8
12PIA05-LEGS
  5
6684
 10
0.0
 20
0.0
 30
0.0
 70
   128
 71
     1
 72
     2
 73
    -3
  0
VERTEX
  8
12PIA05-LEGS
  5
6685
 10
0.0
 20
0.0
 30
0.0
 70
   128
 71
     3
 72
     4
 73
    -1
  0
VERTEX
  8
12PIA05-LEGS
  5
6686
 10
0.0
 20
0.0
 30
0.0
 70
   128
 71
    -3
 72
     5
 73
     6
  0
VERTEX
  8
12PIA05-LEGS
  5
6687
 10
0.0
 20
0.0
 30
0.0
 70
   128
 71
     3
 72
     2
 73
    -5
  0
VERTEX
  8
12PIA05-LEGS
  5
6688
 10
0.0
 20
0.0
 30
0.0
 70
   128
 71
    -7
 72
     8
 73
     9
  0
VERTEX
  8
12PIA05-LEGS
  5
6689
 10
0.0
 20
0.0
 30
0.0
 70
   128
 71
    10
 72
    -8
 73
     7
  0
VERTEX
  8
12PIA05-LEGS
  5
668A
 10
0.0
 20
0.0
 30
0.0
 70
   128
 71
    11
 72
    -7
 73
    12
  0
VERTEX
  8
12PIA05-LEGS
  5
668B
 10
0.0
 20
0.0
 30
0.0
 70
   128
 71
     9
 72
   -12
 73
     7
  0
VERTEX
  8
12PIA05-LEGS
  5
668C
 10
0.0
 20
0.0
 30
0.0
 70
   128
 71
    13
 72
    14
 73
    15
  0
VERTEX
  8
12PIA05-LEGS
  5
668D
 10
0.0
 20
0.0
 30
0.0
 70
   128
 71
    16
 72
    15
 73
   -14
  0
VERTEX
  8
12PIA05-LEGS
  5
668E
 10
0.0
 20
0.0
 30
0.0
 70
   128
 71
    14
 72
    17
 73
   -16
  0
VERTEX
  8
12PIA05-LEGS
  5
668F
 10
0.0
 20
0.0
 30
0.0
 70
   128
 71
    17
 72
    18
 73
    16
  0
VERTEX
  8
12PIA05-LEGS
  5
6690
 10
0.0
 20
0.0
 30
0.0
 70
   128
 71
    19
 72
    20
 73
    21
  0
VERTEX
  8
12PIA05-LEGS
  5
6691
 10
0.0
 20
0.0
 30
0.0
 70
   128
 71
    22
 72
    23
 73
    24
  0
VERTEX
  8
12PIA05-LEGS
  5
6692
 10
0.0
 20
0.0
 30
0.0
 70
   128
 71
    24
 72
    21
 73
   -20
  0
VERTEX
  8
12PIA05-LEGS
  5
6693
 10
0.0
 20
0.0
 30
0.0
 70
   128
 71
    20
 72
    22
 73
   -24
  0
VERTEX
  8
12PIA05-LEGS
  5
6694
 10
0.0
 20
0.0
 30
0.0
 70
   128
 71
    25
 72
    19
 73
    21
  0
VERTEX
  8
12PIA05-LEGS
  5
6695
 10
0.0
 20
0.0
 30
0.0
 70
   128
 71
    23
 72
    26
 73
    24
  0
VERTEX
  8
12PIA05-LEGS
  5
6696
 10
0.0
 20
0.0
 30
0.0
 70
   128
 71
    18
 72
    27
 73
    16
  0
VERTEX
  8
12PIA05-LEGS
  5
6697
 10
0.0
 20
0.0
 30
0.0
 70
   128
 71
    28
 72
    13
 73
    15
  0
VERTEX
  8
12PIA05-LEGS
  5
6698
 10
0.0
 20
0.0
 30
0.0
 70
   128
 71
   -28
 72
    16
 73
    27
  0
VERTEX
  8
12PIA05-LEGS
  5
6699
 10
0.0
 20
0.0
 30
0.0
 70
   128
 71
    28
 72
    15
 73
   -16
  0
VERTEX
  8
12PIA05-LEGS
  5
669A
 10
0.0
 20
0.0
 30
0.0
 70
   128
 71
    21
 72
    24
 73
   -26
  0
VERTEX
  8
12PIA05-LEGS
  5
669B
 10
0.0
 20
0.0
 30
0.0
 70
   128
 71
    26
 72
    25
 73
   -21
  0
VERTEX
  8
12PIA05-LEGS
  5
669C
 10
0.0
 20
0.0
 30
0.0
 70
   128
 71
    29
 72
    30
 73
    31
  0
VERTEX
  8
12PIA05-LEGS
  5
669D
 10
0.0
 20
0.0
 30
0.0
 70
   128
 71
    30
 72
    32
 73
    31
  0
VERTEX
  8
12PIA05-LEGS
  5
669E
 10
0.0
 20
0.0
 30
0.0
 70
   128
 71
    33
 72
   -31
 73
    34
  0
VERTEX
  8
12PIA05-LEGS
  5
669F
 10
0.0
 20
0.0
 30
0.0
 70
   128
 71
    32
 72
   -34
 73
    31
  0
VERTEX
  8
12PIA05-LEGS
  5
66A0
 10
0.0
 20
0.0
 30
0.0
 70
   128
 71
    34
 72
    35
 73
    33
  0
VERTEX
  8
12PIA05-LEGS
  5
66A1
 10
0.0
 20
0.0
 30
0.0
 70
   128
 71
    35
 72
    36
 73
    33
  0
VERTEX
  8
12PIA05-LEGS
  5
66A2
 10
0.0
 20
0.0
 30
0.0
 70
   128
 71
    31
 72
   -33
 73
    29
  0
VERTEX
  8
12PIA05-LEGS
  5
66A3
 10
0.0
 20
0.0
 30
0.0
 70
   128
 71
    36
 72
   -29
 73
    33
  0
VERTEX
  8
12PIA05-LEGS
  5
66A4
 10
0.0
 20
0.0
 30
0.0
 70
   128
 71
    37
 72
    38
 73
    39
  0
VERTEX
  8
12PIA05-LEGS
  5
66A5
 10
0.0
 20
0.0
 30
0.0
 70
   128
 71
    38
 72
    40
 73
    39
  0
VERTEX
  8
12PIA05-LEGS
  5
66A6
 10
0.0
 20
0.0
 30
0.0
 70
   128
 71
    41
 72
   -39
 73
    42
  0
VERTEX
  8
12PIA05-LEGS
  5
66A7
 10
0.0
 20
0.0
 30
0.0
 70
   128
 71
    40
 72
   -42
 73
    39
  0
VERTEX
  8
12PIA05-LEGS
  5
66A8
 10
0.0
 20
0.0
 30
0.0
 70
   128
 71
    42
 72
    43
 73
    41
  0
VERTEX
  8
12PIA05-LEGS
  5
66A9
 10
0.0
 20
0.0
 30
0.0
 70
   128
 71
    43
 72
    44
 73
    41
  0
VERTEX
  8
12PIA05-LEGS
  5
66AA
 10
0.0
 20
0.0
 30
0.0
 70
   128
 71
    39
 72
   -41
 73
    37
  0
VERTEX
  8
12PIA05-LEGS
  5
66AB
 10
0.0
 20
0.0
 30
0.0
 70
   128
 71
    44
 72
   -37
 73
    41
  0
SEQEND
  8
12PIA05-LEGS
  5
66AC
  0
POLYLINE
  8
12PIA05-LEGS
  5
66C6
 66
     1
 10
0.0
 20
0.0
 30
0.0
 70
    64
 71
    38
 72
    32
1001
AVE_ENTITY_MATERIAL
1002
{
1000

1002
{
1071
        0
1070
     0
1070
     0
1002
{
1070
     0
1070
     0
1070
     0
1040
0.0
1002
}
1070
     0
1070
     0
1002
{
1002
}
1002
}
1002
{
1002
}
1002
{
1002
}
1011
0.0
1021
0.0
1031
0.0
1011
1.0
1021
0.0
1031
0.0
1011
0.0
1021
1.0
1031
0.0
1011
0.0
1021
0.0
1031
1.0
1002
}
1001
AVE_FINISH
1002
{
1070
     0
1005
670E
1002
}
  0
VERTEX
  8
12PIA05-LEGS
  5
66C7
 10
-3.029
 20
14.102
 30
2.004
 70
   192
  0
VERTEX
  8
12PIA05-LEGS
  5
66C8
 10
-3.029
 20
12.937
 30
2.004
 70
   192
  0
VERTEX
  8
12PIA05-LEGS
  5
66C9
 10
-2.998
 20
13.519
 30
0.893
 70
   192
  0
VERTEX
  8
12PIA05-LEGS
  5
66CA
 10
-2.998
 20
13.175
 30
0.893
 70
   192
  0
VERTEX
  8
12PIA05-LEGS
  5
66CB
 10
-2.998
 20
13.296
 30
-0.001
 70
   192
  0
VERTEX
  8
12PIA05-LEGS
  5
66CC
 10
-2.998
 20
13.744
 30
-0.001
 70
   192
  0
VERTEX
  8
12PIA05-LEGS
  5
66CD
 10
-2.998
 20
13.865
 30
0.893
 70
   192
  0
VERTEX
  8
12PIA05-LEGS
  5
66CE
 10
-4.934
 20
14.102
 30
2.004
 70
   192
  0
VERTEX
  8
12PIA05-LEGS
  5
66CF
 10
-4.934
 20
12.937
 30
2.004
 70
   192
  0
VERTEX
  8
12PIA05-LEGS
  5
66D0
 10
-4.967
 20
13.519
 30
0.893
 70
   192
  0
VERTEX
  8
12PIA05-LEGS
  5
66D1
 10
-4.967
 20
13.175
 30
0.893
 70
   192
  0
VERTEX
  8
12PIA05-LEGS
  5
66D2
 10
-4.967
 20
13.296
 30
-0.001
 70
   192
  0
VERTEX
  8
12PIA05-LEGS
  5
66D3
 10
-4.967
 20
13.744
 30
-0.001
 70
   192
  0
VERTEX
  8
12PIA05-LEGS
  5
66D4
 10
-4.967
 20
13.865
 30
0.893
 70
   192
  0
VERTEX
  8
12PIA05-LEGS
  5
66D5
 10
51.984
 20
-1.632
 30
0.894
 70
   192
  0
VERTEX
  8
12PIA05-LEGS
  5
66D6
 10
52.138
 20
-1.632
 30
0.0
 70
   192
  0
VERTEX
  8
12PIA05-LEGS
  5
66D7
 10
51.984
 20
-3.124
 30
0.894
 70
   192
  0
VERTEX
  8
12PIA05-LEGS
  5
66D8
 10
52.138
 20
-3.124
 30
0.0
 70
   192
  0
VERTEX
  8
12PIA05-LEGS
  5
66D9
 10
51.684
 20
-1.608
 30
2.005
 70
   192
  0
VERTEX
  8
12PIA05-LEGS
  5
66DA
 10
51.684
 20
-3.148
 30
2.005
 70
   192
  0
VERTEX
  8
12PIA05-LEGS
  5
66DB
 10
52.855
 20
-1.632
 30
0.894
 70
   192
  0
VERTEX
  8
12PIA05-LEGS
  5
66DC
 10
53.156
 20
-3.148
 30
2.005
 70
   192
  0
VERTEX
  8
12PIA05-LEGS
  5
66DD
 10
52.855
 20
-3.124
 30
0.894
 70
   192
  0
VERTEX
  8
12PIA05-LEGS
  5
66DE
 10
53.156
 20
-1.608
 30
2.005
 70
   192
  0
VERTEX
  8
12PIA05-LEGS
  5
66DF
 10
52.703
 20
-1.632
 30
0.0
 70
   192
  0
VERTEX
  8
12PIA05-LEGS
  5
66E0
 10
52.703
 20
-3.124
 30
0.0
 70
   192
  0
VERTEX
  8
12PIA05-LEGS
  5
66E1
 10
52.855
 20
52.38
 30
0.894
 70
   192
  0
VERTEX
  8
12PIA05-LEGS
  5
66E2
 10
53.156
 20
52.404
 30
2.005
 70
   192
  0
VERTEX
  8
12PIA05-LEGS
  5
66E3
 10
52.855
 20
50.888
 30
0.894
 70
   192
  0
VERTEX
  8
12PIA05-LEGS
  5
66E4
 10
53.156
 20
50.864
 30
2.005
 70
   192
  0
VERTEX
  8
12PIA05-LEGS
  5
66E5
 10
52.703
 20
52.38
 30
0.0
 70
   192
  0
VERTEX
  8
12PIA05-LEGS
  5
66E6
 10
52.703
 20
50.888
 30
0.0
 70
   192
  0
VERTEX
  8
12PIA05-LEGS
  5
66E7
 10
52.138
 20
52.38
 30
0.0
 70
   192
  0
VERTEX
  8
12PIA05-LEGS
  5
66E8
 10
52.138
 20
50.888
 30
0.0
 70
   192
  0
VERTEX
  8
12PIA05-LEGS
  5
66E9
 10
51.984
 20
52.38
 30
0.894
 70
   192
  0
VERTEX
  8
12PIA05-LEGS
  5
66EA
 10
51.984
 20
50.888
 30
0.894
 70
   192
  0
VERTEX
  8
12PIA05-LEGS
  5
66EB
 10
51.684
 20
52.404
 30
2.005
 70
   192
  0
VERTEX
  8
12PIA05-LEGS
  5
66EC
 10
51.684
 20
50.864
 30
2.005
 70
   192
  0
VERTEX
  8
12PIA05-LEGS
  5
66ED
 10
0.0
 20
0.0
 30
0.0
 70
   128
 71
     1
 72
     2
 73
     3
  0
VERTEX
  8
12PIA05-LEGS
  5
66EE
 10
0.0
 20
0.0
 30
0.0
 70
   128
 71
     2
 72
     4
 73
     3
  0
VERTEX
  8
12PIA05-LEGS
  5
66EF
 10
0.0
 20
0.0
 30
0.0
 70
   128
 71
     4
 72
     5
 73
     3
  0
VERTEX
  8
12PIA05-LEGS
  5
66F0
 10
0.0
 20
0.0
 30
0.0
 70
   128
 71
     5
 72
     6
 73
     3
  0
VERTEX
  8
12PIA05-LEGS
  5
66F1
 10
0.0
 20
0.0
 30
0.0
 70
   128
 71
     6
 72
     7
 73
     3
  0
VERTEX
  8
12PIA05-LEGS
  5
66F2
 10
0.0
 20
0.0
 30
0.0
 70
   128
 71
     7
 72
     1
 73
     3
  0
VERTEX
  8
12PIA05-LEGS
  5
66F3
 10
0.0
 20
0.0
 30
0.0
 70
   128
 71
     8
 72
     9
 73
    10
  0
VERTEX
  8
12PIA05-LEGS
  5
66F4
 10
0.0
 20
0.0
 30
0.0
 70
   128
 71
     9
 72
    11
 73
    10
  0
VERTEX
  8
12PIA05-LEGS
  5
66F5
 10
0.0
 20
0.0
 30
0.0
 70
   128
 71
    11
 72
    12
 73
    10
  0
VERTEX
  8
12PIA05-LEGS
  5
66F6
 10
0.0
 20
0.0
 30
0.0
 70
   128
 71
    12
 72
    13
 73
    10
  0
VERTEX
  8
12PIA05-LEGS
  5
66F7
 10
0.0
 20
0.0
 30
0.0
 70
   128
 71
    13
 72
    14
 73
    10
  0
VERTEX
  8
12PIA05-LEGS
  5
66F8
 10
0.0
 20
0.0
 30
0.0
 70
   128
 71
    14
 72
     8
 73
    10
  0
VERTEX
  8
12PIA05-LEGS
  5
66F9
 10
0.0
 20
0.0
 30
0.0
 70
   128
 71
    15
 72
   -16
 73
    17
  0
VERTEX
  8
12PIA05-LEGS
  5
66FA
 10
0.0
 20
0.0
 30
0.0
 70
   128
 71
    18
 72
   -17
 73
    16
  0
VERTEX
  8
12PIA05-LEGS
  5
66FB
 10
0.0
 20
0.0
 30
0.0
 70
   128
 71
    19
 72
   -15
 73
    20
  0
VERTEX
  8
12PIA05-LEGS
  5
66FC
 10
0.0
 20
0.0
 30
0.0
 70
   128
 71
    17
 72
   -20
 73
    15
  0
VERTEX
  8
12PIA05-LEGS
  5
66FD
 10
0.0
 20
0.0
 30
0.0
 70
   128
 71
   -21
 72
    22
 73
    23
  0
VERTEX
  8
12PIA05-LEGS
  5
66FE
 10
0.0
 20
0.0
 30
0.0
 70
   128
 71
    24
 72
   -22
 73
    21
  0
VERTEX
  8
12PIA05-LEGS
  5
66FF
 10
0.0
 20
0.0
 30
0.0
 70
   128
 71
    25
 72
   -21
 73
    26
  0
VERTEX
  8
12PIA05-LEGS
  5
6700
 10
0.0
 20
0.0
 30
0.0
 70
   128
 71
    23
 72
   -26
 73
    21
  0
VERTEX
  8
12PIA05-LEGS
  5
6701
 10
0.0
 20
0.0
 30
0.0
 70
   128
 71
    16
 72
   -25
 73
    18
  0
VERTEX
  8
12PIA05-LEGS
  5
6702
 10
0.0
 20
0.0
 30
0.0
 70
   128
 71
    26
 72
   -18
 73
    25
  0
VERTEX
  8
12PIA05-LEGS
  5
6703
 10
0.0
 20
0.0
 30
0.0
 70
   128
 71
    27
 72
   -28
 73
    29
  0
VERTEX
  8
12PIA05-LEGS
  5
6704
 10
0.0
 20
0.0
 30
0.0
 70
   128
 71
    30
 72
   -29
 73
    28
  0
VERTEX
  8
12PIA05-LEGS
  5
6705
 10
0.0
 20
0.0
 30
0.0
 70
   128
 71
    31
 72
   -27
 73
    32
  0
VERTEX
  8
12PIA05-LEGS
  5
6706
 10
0.0
 20
0.0
 30
0.0
 70
   128
 71
    29
 72
   -32
 73
    27
  0
VERTEX
  8
12PIA05-LEGS
  5
6707
 10
0.0
 20
0.0
 30
0.0
 70
   128
 71
    33
 72
   -31
 73
    34
  0
VERTEX
  8
12PIA05-LEGS
  5
6708
 10
0.0
 20
0.0
 30
0.0
 70
   128
 71
    32
 72
   -34
 73
    31
  0
VERTEX
  8
12PIA05-LEGS
  5
6709
 10
0.0
 20
0.0
 30
0.0
 70
   128
 71
    35
 72
   -33
 73
    36
  0
VERTEX
  8
12PIA05-LEGS
  5
670A
 10
0.0
 20
0.0
 30
0.0
 70
   128
 71
    34
 72
   -36
 73
    33
  0
VERTEX
  8
12PIA05-LEGS
  5
670B
 10
0.0
 20
0.0
 30
0.0
 70
   128
 71
    37
 72
   -35
 73
    38
  0
VERTEX
  8
12PIA05-LEGS
  5
670C
 10
0.0
 20
0.0
 30
0.0
 70
   128
 71
    36
 72
   -38
 73
    35
  0
SEQEND
  8
12PIA05-LEGS
  5
670D
  0
POLYLINE
  8
12PIA05-LEGS
  5
6727
 66
     1
 10
0.0
 20
0.0
 30
0.0
 70
    64
 71
    40
 72
    34
1001
AVE_ENTITY_MATERIAL
1002
{
1000

1002
{
1071
        0
1070
     0
1070
     0
1002
{
1070
     0
1070
     0
1070
     0
1040
0.0
1002
}
1070
     0
1070
     0
1002
{
1002
}
1002
}
1002
{
1002
}
1002
{
1002
}
1011
0.0
1021
0.0
1031
0.0
1011
1.0
1021
0.0
1031
0.0
1011
0.0
1021
1.0
1031
0.0
1011
0.0
1021
0.0
1031
1.0
1002
}
1001
AVE_FINISH
1002
{
1070
     0
1005
6773
1002
}
  0
VERTEX
  8
12PIA05-LEGS
  5
6728
 10
53.156
 20
52.356
 30
2.005
 70
   192
  0
VERTEX
  8
12PIA05-LEGS
  5
6729
 10
51.684
 20
52.356
 30
2.005
 70
   192
  0
VERTEX
  8
12PIA05-LEGS
  5
672A
 10
52.42
 20
52.38
 30
0.894
 70
   192
  0
VERTEX
  8
12PIA05-LEGS
  5
672B
 10
51.984
 20
52.38
 30
0.894
 70
   192
  0
VERTEX
  8
12PIA05-LEGS
  5
672C
 10
52.138
 20
52.38
 30
0.0
 70
   192
  0
VERTEX
  8
12PIA05-LEGS
  5
672D
 10
52.703
 20
52.38
 30
0.0
 70
   192
  0
VERTEX
  8
12PIA05-LEGS
  5
672E
 10
52.855
 20
52.38
 30
0.894
 70
   192
  0
VERTEX
  8
12PIA05-LEGS
  5
672F
 10
53.156
 20
50.912
 30
2.005
 70
   192
  0
VERTEX
  8
12PIA05-LEGS
  5
6730
 10
51.684
 20
50.912
 30
2.005
 70
   192
  0
VERTEX
  8
12PIA05-LEGS
  5
6731
 10
52.42
 20
50.888
 30
0.894
 70
   192
  0
VERTEX
  8
12PIA05-LEGS
  5
6732
 10
51.984
 20
50.888
 30
0.894
 70
   192
  0
VERTEX
  8
12PIA05-LEGS
  5
6733
 10
52.138
 20
50.888
 30
0.0
 70
   192
  0
VERTEX
  8
12PIA05-LEGS
  5
6734
 10
52.703
 20
50.888
 30
0.0
 70
   192
  0
VERTEX
  8
12PIA05-LEGS
  5
6735
 10
52.855
 20
50.888
 30
0.894
 70
   192
  0
VERTEX
  8
12PIA05-LEGS
  5
6736
 10
51.684
 20
-3.1
 30
2.005
 70
   192
  0
VERTEX
  8
12PIA05-LEGS
  5
6737
 10
53.156
 20
-3.1
 30
2.005
 70
   192
  0
VERTEX
  8
12PIA05-LEGS
  5
6738
 10
52.42
 20
-3.124
 30
0.894
 70
   192
  0
VERTEX
  8
12PIA05-LEGS
  5
6739
 10
51.984
 20
-3.124
 30
0.894
 70
   192
  0
VERTEX
  8
12PIA05-LEGS
  5
673A
 10
52.138
 20
-3.124
 30
0.0
 70
   192
  0
VERTEX
  8
12PIA05-LEGS
  5
673B
 10
52.703
 20
-3.124
 30
0.0
 70
   192
  0
VERTEX
  8
12PIA05-LEGS
  5
673C
 10
52.855
 20
-3.124
 30
0.894
 70
   192
  0
VERTEX
  8
12PIA05-LEGS
  5
673D
 10
51.684
 20
-1.656
 30
2.005
 70
   192
  0
VERTEX
  8
12PIA05-LEGS
  5
673E
 10
53.156
 20
-1.656
 30
2.005
 70
   192
  0
VERTEX
  8
12PIA05-LEGS
  5
673F
 10
52.42
 20
-1.632
 30
0.894
 70
   192
  0
VERTEX
  8
12PIA05-LEGS
  5
6740
 10
51.984
 20
-1.632
 30
0.894
 70
   192
  0
VERTEX
  8
12PIA05-LEGS
  5
6741
 10
52.138
 20
-1.632
 30
0.0
 70
   192
  0
VERTEX
  8
12PIA05-LEGS
  5
6742
 10
52.703
 20
-1.632
 30
0.0
 70
   192
  0
VERTEX
  8
12PIA05-LEGS
  5
6743
 10
52.855
 20
-1.632
 30
0.894
 70
   192
  0
VERTEX
  8
12PIA05-LEGS
  5
6744
 10
-4.967
 20
13.865
 30
0.893
 70
   192
  0
VERTEX
  8
12PIA05-LEGS
  5
6745
 10
-4.998
 20
14.102
 30
2.004
 70
   192
  0
VERTEX
  8
12PIA05-LEGS
  5
6746
 10
-2.998
 20
13.865
 30
0.893
 70
   192
  0
VERTEX
  8
12PIA05-LEGS
  5
6747
 10
-2.965
 20
14.102
 30
2.004
 70
   192
  0
VERTEX
  8
12PIA05-LEGS
  5
6748
 10
-4.967
 20
13.744
 30
-0.001
 70
   192
  0
VERTEX
  8
12PIA05-LEGS
  5
6749
 10
-2.998
 20
13.744
 30
-0.001
 70
   192
  0
VERTEX
  8
12PIA05-LEGS
  5
674A
 10
-4.967
 20
13.296
 30
-0.001
 70
   192
  0
VERTEX
  8
12PIA05-LEGS
  5
674B
 10
-2.998
 20
13.296
 30
-0.001
 70
   192
  0
VERTEX
  8
12PIA05-LEGS
  5
674C
 10
-4.967
 20
13.175
 30
0.893
 70
   192
  0
VERTEX
  8
12PIA05-LEGS
  5
674D
 10
-2.998
 20
13.175
 30
0.893
 70
   192
  0
VERTEX
  8
12PIA05-LEGS
  5
674E
 10
-4.998
 20
12.937
 30
2.004
 70
   192
  0
VERTEX
  8
12PIA05-LEGS
  5
674F
 10
-2.965
 20
12.937
 30
2.004
 70
   192
  0
VERTEX
  8
12PIA05-LEGS
  5
6750
 10
0.0
 20
0.0
 30
0.0
 70
   128
 71
     1
 72
     2
 73
     3
  0
VERTEX
  8
12PIA05-LEGS
  5
6751
 10
0.0
 20
0.0
 30
0.0
 70
   128
 71
     2
 72
     4
 73
     3
  0
VERTEX
  8
12PIA05-LEGS
  5
6752
 10
0.0
 20
0.0
 30
0.0
 70
   128
 71
     4
 72
     5
 73
     3
  0
VERTEX
  8
12PIA05-LEGS
  5
6753
 10
0.0
 20
0.0
 30
0.0
 70
   128
 71
     5
 72
     6
 73
     3
  0
VERTEX
  8
12PIA05-LEGS
  5
6754
 10
0.0
 20
0.0
 30
0.0
 70
   128
 71
     6
 72
     7
 73
     3
  0
VERTEX
  8
12PIA05-LEGS
  5
6755
 10
0.0
 20
0.0
 30
0.0
 70
   128
 71
     7
 72
     1
 73
     3
  0
VERTEX
  8
12PIA05-LEGS
  5
6756
 10
0.0
 20
0.0
 30
0.0
 70
   128
 71
     8
 72
     9
 73
    10
  0
VERTEX
  8
12PIA05-LEGS
  5
6757
 10
0.0
 20
0.0
 30
0.0
 70
   128
 71
     9
 72
    11
 73
    10
  0
VERTEX
  8
12PIA05-LEGS
  5
6758
 10
0.0
 20
0.0
 30
0.0
 70
   128
 71
    11
 72
    12
 73
    10
  0
VERTEX
  8
12PIA05-LEGS
  5
6759
 10
0.0
 20
0.0
 30
0.0
 70
   128
 71
    12
 72
    13
 73
    10
  0
VERTEX
  8
12PIA05-LEGS
  5
675A
 10
0.0
 20
0.0
 30
0.0
 70
   128
 71
    13
 72
    14
 73
    10
  0
VERTEX
  8
12PIA05-LEGS
  5
675B
 10
0.0
 20
0.0
 30
0.0
 70
   128
 71
    14
 72
     8
 73
    10
  0
VERTEX
  8
12PIA05-LEGS
  5
675C
 10
0.0
 20
0.0
 30
0.0
 70
   128
 71
    15
 72
    16
 73
    17
  0
VERTEX
  8
12PIA05-LEGS
  5
675D
 10
0.0
 20
0.0
 30
0.0
 70
   128
 71
    18
 72
    15
 73
    17
  0
VERTEX
  8
12PIA05-LEGS
  5
675E
 10
0.0
 20
0.0
 30
0.0
 70
   128
 71
    19
 72
    18
 73
    17
  0
VERTEX
  8
12PIA05-LEGS
  5
675F
 10
0.0
 20
0.0
 30
0.0
 70
   128
 71
    20
 72
    19
 73
    17
  0
VERTEX
  8
12PIA05-LEGS
  5
6760
 10
0.0
 20
0.0
 30
0.0
 70
   128
 71
    21
 72
    20
 73
    17
  0
VERTEX
  8
12PIA05-LEGS
  5
6761
 10
0.0
 20
0.0
 30
0.0
 70
   128
 71
    16
 72
    21
 73
    17
  0
VERTEX
  8
12PIA05-LEGS
  5
6762
 10
0.0
 20
0.0
 30
0.0
 70
   128
 71
    22
 72
    23
 73
    24
  0
VERTEX
  8
12PIA05-LEGS
  5
6763
 10
0.0
 20
0.0
 30
0.0
 70
   128
 71
    25
 72
    22
 73
    24
  0
VERTEX
  8
12PIA05-LEGS
  5
6764
 10
0.0
 20
0.0
 30
0.0
 70
   128
 71
    26
 72
    25
 73
    24
  0
VERTEX
  8
12PIA05-LEGS
  5
6765
 10
0.0
 20
0.0
 30
0.0
 70
   128
 71
    27
 72
    26
 73
    24
  0
VERTEX
  8
12PIA05-LEGS
  5
6766
 10
0.0
 20
0.0
 30
0.0
 70
   128
 71
    28
 72
    27
 73
    24
  0
VERTEX
  8
12PIA05-LEGS
  5
6767
 10
0.0
 20
0.0
 30
0.0
 70
   128
 71
    23
 72
    28
 73
    24
  0
VERTEX
  8
12PIA05-LEGS
  5
6768
 10
0.0
 20
0.0
 30
0.0
 70
   128
 71
    29
 72
   -30
 73
    31
  0
VERTEX
  8
12PIA05-LEGS
  5
6769
 10
0.0
 20
0.0
 30
0.0
 70
   128
 71
    32
 72
   -31
 73
    30
  0
VERTEX
  8
12PIA05-LEGS
  5
676A
 10
0.0
 20
0.0
 30
0.0
 70
   128
 71
    33
 72
   -29
 73
    34
  0
VERTEX
  8
12PIA05-LEGS
  5
676B
 10
0.0
 20
0.0
 30
0.0
 70
   128
 71
    31
 72
   -34
 73
    29
  0
VERTEX
  8
12PIA05-LEGS
  5
676C
 10
0.0
 20
0.0
 30
0.0
 70
   128
 71
    35
 72
   -33
 73
    36
  0
VERTEX
  8
12PIA05-LEGS
  5
676D
 10
0.0
 20
0.0
 30
0.0
 70
   128
 71
    34
 72
   -36
 73
    33
  0
VERTEX
  8
12PIA05-LEGS
  5
676E
 10
0.0
 20
0.0
 30
0.0
 70
   128
 71
    37
 72
   -35
 73
    38
  0
VERTEX
  8
12PIA05-LEGS
  5
676F
 10
0.0
 20
0.0
 30
0.0
 70
   128
 71
    36
 72
   -38
 73
    35
  0
VERTEX
  8
12PIA05-LEGS
  5
6770
 10
0.0
 20
0.0
 30
0.0
 70
   128
 71
    39
 72
   -37
 73
    40
  0
VERTEX
  8
12PIA05-LEGS
  5
6771
 10
0.0
 20
0.0
 30
0.0
 70
   128
 71
    38
 72
   -40
 73
    37
  0
SEQEND
  8
12PIA05-LEGS
  5
6772
  0
POLYLINE
  8
12PIA05-MAIN
  5
678C
 66
     1
 10
0.0
 20
0.0
 30
0.0
 70
    64
 71
    31
 72
    58
1001
AVE_ENTITY_MATERIAL
1002
{
1000

1002
{
1071
        0
1070
     0
1070
     0
1002
{
1070
     0
1070
     0
1070
     0
1040
0.0
1002
}
1070
     0
1070
     0
1002
{
1002
}
1002
}
1002
{
1002
}
1002
{
1002
}
1011
0.0
1021
0.0
1031
0.0
1011
1.0
1021
0.0
1031
0.0
1011
0.0
1021
1.0
1031
0.0
1011
0.0
1021
0.0
1031
1.0
1002
}
1001
AVE_FINISH
1002
{
1070
     0
1005
67E7
1002
}
  0
VERTEX
  8
12PIA05-MAIN
  5
678D
 10
50.788
 20
53.472
 30
37.933
 70
   192
  0
VERTEX
  8
12PIA05-MAIN
  5
678E
 10
44.402
 20
53.472
 30
37.933
 70
   192
  0
VERTEX
  8
12PIA05-MAIN
  5
678F
 10
50.788
 20
-3.528
 30
37.934
 70
   192
  0
VERTEX
  8
12PIA05-MAIN
  5
6790
 10
40.63
 20
53.114
 30
37.933
 70
   192
  0
VERTEX
  8
12PIA05-MAIN
  5
6791
 10
37.417
 20
52.243
 30
37.933
 70
   192
  0
VERTEX
  8
12PIA05-MAIN
  5
6792
 10
34.172
 20
50.699
 30
37.934
 70
   192
  0
VERTEX
  8
12PIA05-MAIN
  5
6793
 10
31.554
 20
48.827
 30
37.934
 70
   192
  0
VERTEX
  8
12PIA05-MAIN
  5
6794
 10
29.249
 20
46.435
 30
37.934
 70
   192
  0
VERTEX
  8
12PIA05-MAIN
  5
6795
 10
27.323
 20
43.396
 30
37.934
 70
   192
  0
VERTEX
  8
12PIA05-MAIN
  5
6796
 10
26.074
 20
39.886
 30
37.934
 70
   192
  0
VERTEX
  8
12PIA05-MAIN
  5
6797
 10
24.635
 20
36.702
 30
37.933
 70
   192
  0
VERTEX
  8
12PIA05-MAIN
  5
6798
 10
22.489
 20
34.192
 30
37.934
 70
   192
  0
VERTEX
  8
12PIA05-MAIN
  5
6799
 10
19.794
 20
32.168
 30
37.933
 70
   192
  0
VERTEX
  8
12PIA05-MAIN
  5
679A
 10
16.709
 20
30.773
 30
37.934
 70
   192
  0
VERTEX
  8
12PIA05-MAIN
  5
679B
 10
12.948
 20
30.107
 30
37.933
 70
   192
  0
VERTEX
  8
12PIA05-MAIN
  5
679C
 10
8.944
 20
29.809
 30
37.933
 70
   192
  0
VERTEX
  8
12PIA05-MAIN
  5
679D
 10
4.976
 20
28.987
 30
37.934
 70
   192
  0
VERTEX
  8
12PIA05-MAIN
  5
679E
 10
1.795
 20
27.602
 30
37.934
 70
   192
  0
VERTEX
  8
12PIA05-MAIN
  5
679F
 10
-1.267
 20
25.499
 30
37.934
 70
   192
  0
VERTEX
  8
12PIA05-MAIN
  5
67A0
 10
-3.749
 20
22.946
 30
37.934
 70
   192
  0
VERTEX
  8
12PIA05-MAIN
  5
67A1
 10
-5.453
 20
20.324
 30
37.933
 70
   192
  0
VERTEX
  8
12PIA05-MAIN
  5
67A2
 10
-6.73
 20
17.039
 30
37.934
 70
   192
  0
VERTEX
  8
12PIA05-MAIN
  5
67A3
 10
-7.206
 20
13.986
 30
37.933
 70
   192
  0
VERTEX
  8
12PIA05-MAIN
  5
67A4
 10
-7.046
 20
10.847
 30
37.933
 70
   192
  0
VERTEX
  8
12PIA05-MAIN
  5
67A5
 10
-6.276
 20
7.906
 30
37.934
 70
   192
  0
VERTEX
  8
12PIA05-MAIN
  5
67A6
 10
-4.783
 20
4.854
 30
37.934
 70
   192
  0
VERTEX
  8
12PIA05-MAIN
  5
67A7
 10
-2.701
 20
2.262
 30
37.934
 70
   192
  0
VERTEX
  8
12PIA05-MAIN
  5
67A8
 10
0.0
 20
0.0
 30
37.933
 70
   192
  0
VERTEX
  8
12PIA05-MAIN
  5
67A9
 10
3.23
 20
-1.784
 30
37.933
 70
   192
  0
VERTEX
  8
12PIA05-MAIN
  5
67AA
 10
6.882
 20
-2.976
 30
37.933
 70
   192
  0
VERTEX
  8
12PIA05-MAIN
  5
67AB
 10
11.346
 20
-3.528
 30
37.934
 70
   192
  0
VERTEX
  8
12PIA05-MAIN
  5
67AC
 10
0.0
 20
0.0
 30
0.0
 70
   128
 71
     1
 72
    -2
 73
     3
  0
VERTEX
  8
12PIA05-MAIN
  5
67AD
 10
0.0
 20
0.0
 30
0.0
 70
   128
 71
     4
 72
    -2
 73
    -3
  0
VERTEX
  8
12PIA05-MAIN
  5
67AE
 10
0.0
 20
0.0
 30
0.0
 70
   128
 71
     5
 72
    -4
 73
    -3
  0
VERTEX
  8
12PIA05-MAIN
  5
67AF
 10
0.0
 20
0.0
 30
0.0
 70
   128
 71
     6
 72
    -5
 73
    -3
  0
VERTEX
  8
12PIA05-MAIN
  5
67B0
 10
0.0
 20
0.0
 30
0.0
 70
   128
 71
     7
 72
    -6
 73
    -3
  0
VERTEX
  8
12PIA05-MAIN
  5
67B1
 10
0.0
 20
0.0
 30
0.0
 70
   128
 71
     8
 72
    -7
 73
    -3
  0
VERTEX
  8
12PIA05-MAIN
  5
67B2
 10
0.0
 20
0.0
 30
0.0
 70
   128
 71
     9
 72
    -8
 73
    -3
  0
VERTEX
  8
12PIA05-MAIN
  5
67B3
 10
0.0
 20
0.0
 30
0.0
 70
   128
 71
    10
 72
    -9
 73
    -3
  0
VERTEX
  8
12PIA05-MAIN
  5
67B4
 10
0.0
 20
0.0
 30
0.0
 70
   128
 71
    11
 72
   -10
 73
    -3
  0
VERTEX
  8
12PIA05-MAIN
  5
67B5
 10
0.0
 20
0.0
 30
0.0
 70
   128
 71
    12
 72
   -11
 73
    -3
  0
VERTEX
  8
12PIA05-MAIN
  5
67B6
 10
0.0
 20
0.0
 30
0.0
 70
   128
 71
    13
 72
   -12
 73
    -3
  0
VERTEX
  8
12PIA05-MAIN
  5
67B7
 10
0.0
 20
0.0
 30
0.0
 70
   128
 71
    14
 72
   -13
 73
    -3
  0
VERTEX
  8
12PIA05-MAIN
  5
67B8
 10
0.0
 20
0.0
 30
0.0
 70
   128
 71
    15
 72
   -14
 73
    -3
  0
VERTEX
  8
12PIA05-MAIN
  5
67B9
 10
0.0
 20
0.0
 30
0.0
 70
   128
 71
    16
 72
   -15
 73
    -3
  0
VERTEX
  8
12PIA05-MAIN
  5
67BA
 10
0.0
 20
0.0
 30
0.0
 70
   128
 71
    17
 72
   -16
 73
    -3
  0
VERTEX
  8
12PIA05-MAIN
  5
67BB
 10
0.0
 20
0.0
 30
0.0
 70
   128
 71
    18
 72
   -17
 73
    -3
  0
VERTEX
  8
12PIA05-MAIN
  5
67BC
 10
0.0
 20
0.0
 30
0.0
 70
   128
 71
    19
 72
   -18
 73
    -3
  0
VERTEX
  8
12PIA05-MAIN
  5
67BD
 10
0.0
 20
0.0
 30
0.0
 70
   128
 71
    20
 72
   -19
 73
    -3
  0
VERTEX
  8
12PIA05-MAIN
  5
67BE
 10
0.0
 20
0.0
 30
0.0
 70
   128
 71
    21
 72
   -20
 73
    -3
  0
VERTEX
  8
12PIA05-MAIN
  5
67BF
 10
0.0
 20
0.0
 30
0.0
 70
   128
 71
    22
 72
   -21
 73
    -3
  0
VERTEX
  8
12PIA05-MAIN
  5
67C0
 10
0.0
 20
0.0
 30
0.0
 70
   128
 71
    23
 72
   -22
 73
    -3
  0
VERTEX
  8
12PIA05-MAIN
  5
67C1
 10
0.0
 20
0.0
 30
0.0
 70
   128
 71
    24
 72
   -23
 73
    -3
  0
VERTEX
  8
12PIA05-MAIN
  5
67C2
 10
0.0
 20
0.0
 30
0.0
 70
   128
 71
    25
 72
   -24
 73
    -3
  0
VERTEX
  8
12PIA05-MAIN
  5
67C3
 10
0.0
 20
0.0
 30
0.0
 70
   128
 71
    26
 72
   -25
 73
    -3
  0
VERTEX
  8
12PIA05-MAIN
  5
67C4
 10
0.0
 20
0.0
 30
0.0
 70
   128
 71
    27
 72
   -26
 73
    -3
  0
VERTEX
  8
12PIA05-MAIN
  5
67C5
 10
0.0
 20
0.0
 30
0.0
 70
   128
 71
    28
 72
   -27
 73
    -3
  0
VERTEX
  8
12PIA05-MAIN
  5
67C6
 10
0.0
 20
0.0
 30
0.0
 70
   128
 71
    29
 72
   -28
 73
    -3
  0
VERTEX
  8
12PIA05-MAIN
  5
67C7
 10
0.0
 20
0.0
 30
0.0
 70
   128
 71
    30
 72
   -29
 73
    -3
  0
VERTEX
  8
12PIA05-MAIN
  5
67C8
 10
0.0
 20
0.0
 30
0.0
 70
   128
 71
    31
 72
   -30
 73
     3
  0
VERTEX
  8
12PIA05-MAIN
  5
67C9
 10
0.0
 20
0.0
 30
0.0
 70
   128
 71
     2
 72
     1
 73
    -3
  0
VERTEX
  8
12PIA05-MAIN
  5
67CA
 10
0.0
 20
0.0
 30
0.0
 70
   128
 71
     4
 72
    -2
 73
    -3
  0
VERTEX
  8
12PIA05-MAIN
  5
67CB
 10
0.0
 20
0.0
 30
0.0
 70
   128
 71
     5
 72
    -4
 73
    -3
  0
VERTEX
  8
12PIA05-MAIN
  5
67CC
 10
0.0
 20
0.0
 30
0.0
 70
   128
 71
     6
 72
    -5
 73
    -3
  0
VERTEX
  8
12PIA05-MAIN
  5
67CD
 10
0.0
 20
0.0
 30
0.0
 70
   128
 71
     7
 72
    -6
 73
    -3
  0
VERTEX
  8
12PIA05-MAIN
  5
67CE
 10
0.0
 20
0.0
 30
0.0
 70
   128
 71
     8
 72
    -7
 73
    -3
  0
VERTEX
  8
12PIA05-MAIN
  5
67CF
 10
0.0
 20
0.0
 30
0.0
 70
   128
 71
     9
 72
    -8
 73
    -3
  0
VERTEX
  8
12PIA05-MAIN
  5
67D0
 10
0.0
 20
0.0
 30
0.0
 70
   128
 71
    10
 72
    -9
 73
    -3
  0
VERTEX
  8
12PIA05-MAIN
  5
67D1
 10
0.0
 20
0.0
 30
0.0
 70
   128
 71
    11
 72
   -10
 73
    -3
  0
VERTEX
  8
12PIA05-MAIN
  5
67D2
 10
0.0
 20
0.0
 30
0.0
 70
   128
 71
    12
 72
   -11
 73
    -3
  0
VERTEX
  8
12PIA05-MAIN
  5
67D3
 10
0.0
 20
0.0
 30
0.0
 70
   128
 71
    13
 72
   -12
 73
    -3
  0
VERTEX
  8
12PIA05-MAIN
  5
67D4
 10
0.0
 20
0.0
 30
0.0
 70
   128
 71
    14
 72
   -13
 73
    -3
  0
VERTEX
  8
12PIA05-MAIN
  5
67D5
 10
0.0
 20
0.0
 30
0.0
 70
   128
 71
    15
 72
   -14
 73
    -3
  0
VERTEX
  8
12PIA05-MAIN
  5
67D6
 10
0.0
 20
0.0
 30
0.0
 70
   128
 71
    16
 72
   -15
 73
    -3
  0
VERTEX
  8
12PIA05-MAIN
  5
67D7
 10
0.0
 20
0.0
 30
0.0
 70
   128
 71
    17
 72
   -16
 73
    -3
  0
VERTEX
  8
12PIA05-MAIN
  5
67D8
 10
0.0
 20
0.0
 30
0.0
 70
   128
 71
    18
 72
   -17
 73
    -3
  0
VERTEX
  8
12PIA05-MAIN
  5
67D9
 10
0.0
 20
0.0
 30
0.0
 70
   128
 71
    19
 72
   -18
 73
    -3
  0
VERTEX
  8
12PIA05-MAIN
  5
67DA
 10
0.0
 20
0.0
 30
0.0
 70
   128
 71
    20
 72
   -19
 73
    -3
  0
VERTEX
  8
12PIA05-MAIN
  5
67DB
 10
0.0
 20
0.0
 30
0.0
 70
   128
 71
    21
 72
   -20
 73
    -3
  0
VERTEX
  8
12PIA05-MAIN
  5
67DC
 10
0.0
 20
0.0
 30
0.0
 70
   128
 71
    22
 72
   -21
 73
    -3
  0
VERTEX
  8
12PIA05-MAIN
  5
67DD
 10
0.0
 20
0.0
 30
0.0
 70
   128
 71
    23
 72
   -22
 73
    -3
  0
VERTEX
  8
12PIA05-MAIN
  5
67DE
 10
0.0
 20
0.0
 30
0.0
 70
   128
 71
    24
 72
   -23
 73
    -3
  0
VERTEX
  8
12PIA05-MAIN
  5
67DF
 10
0.0
 20
0.0
 30
0.0
 70
   128
 71
    25
 72
   -24
 73
    -3
  0
VERTEX
  8
12PIA05-MAIN
  5
67E0
 10
0.0
 20
0.0
 30
0.0
 70
   128
 71
    26
 72
   -25
 73
    -3
  0
VERTEX
  8
12PIA05-MAIN
  5
67E1
 10
0.0
 20
0.0
 30
0.0
 70
   128
 71
    27
 72
   -26
 73
    -3
  0
VERTEX
  8
12PIA05-MAIN
  5
67E2
 10
0.0
 20
0.0
 30
0.0
 70
   128
 71
    28
 72
   -27
 73
    -3
  0
VERTEX
  8
12PIA05-MAIN
  5
67E3
 10
0.0
 20
0.0
 30
0.0
 70
   128
 71
    29
 72
   -28
 73
    -3
  0
VERTEX
  8
12PIA05-MAIN
  5
67E4
 10
0.0
 20
0.0
 30
0.0
 70
   128
 71
    30
 72
   -29
 73
    -3
  0
VERTEX
  8
12PIA05-MAIN
  5
67E5
 10
0.0
 20
0.0
 30
0.0
 70
   128
 71
    31
 72
   -30
 73
     3
  0
SEQEND
  8
12PIA05-MAIN
  5
67E6
  0
POLYLINE
  8
12PIA05-MAIN
  5
6800
 66
     1
 10
0.0
 20
0.0
 30
0.0
 70
    64
 71
    89
 72
    49
1001
AVE_ENTITY_MATERIAL
1002
{
1000

1002
{
1071
        0
1070
     0
1070
     0
1002
{
1070
     0
1070
     0
1070
     0
1040
0.0
1002
}
1070
     0
1070
     0
1002
{
1002
}
1002
}
1002
{
1002
}
1002
{
1002
}
1011
0.0
1021
0.0
1031
0.0
1011
1.0
1021
0.0
1031
0.0
1011
0.0
1021
1.0
1031
0.0
1011
0.0
1021
0.0
1031
1.0
1002
}
1001
AVE_FINISH
1002
{
1070
     0
1005
688C
1002
}
  0
VERTEX
  8
12PIA05-MAIN
  5
6801
 10
50.788
 20
27.491
 30
22.356
 70
   192
  0
VERTEX
  8
12PIA05-MAIN
  5
6802
 10
50.788
 20
25.812
 30
22.356
 70
   192
  0
VERTEX
  8
12PIA05-MAIN
  5
6803
 10
49.481
 20
25.814
 30
22.356
 70
   192
  0
VERTEX
  8
12PIA05-MAIN
  5
6804
 10
49.481
 20
27.493
 30
22.356
 70
   192
  0
VERTEX
  8
12PIA05-MAIN
  5
6805
 10
50.788
 20
25.92
 30
3.478
 70
   192
  0
VERTEX
  8
12PIA05-MAIN
  5
6806
 10
50.788
 20
27.682
 30
4.504
 70
   192
  0
VERTEX
  8
12PIA05-MAIN
  5
6807
 10
49.481
 20
27.684
 30
4.504
 70
   192
  0
VERTEX
  8
12PIA05-MAIN
  5
6808
 10
49.481
 20
25.922
 30
3.478
 70
   192
  0
VERTEX
  8
12PIA05-MAIN
  5
6809
 10
50.788
 20
24.131
 30
22.356
 70
   192
  0
VERTEX
  8
12PIA05-MAIN
  5
680A
 10
50.788
 20
22.452
 30
22.356
 70
   192
  0
VERTEX
  8
12PIA05-MAIN
  5
680B
 10
49.481
 20
24.133
 30
22.356
 70
   192
  0
VERTEX
  8
12PIA05-MAIN
  5
680C
 10
49.481
 20
22.454
 30
22.356
 70
   192
  0
VERTEX
  8
12PIA05-MAIN
  5
680D
 10
50.788
 20
22.261
 30
4.504
 70
   192
  0
VERTEX
  8
12PIA05-MAIN
  5
680E
 10
49.481
 20
24.025
 30
3.478
 70
   192
  0
VERTEX
  8
12PIA05-MAIN
  5
680F
 10
49.481
 20
22.264
 30
4.504
 70
   192
  0
VERTEX
  8
12PIA05-MAIN
  5
6810
 10
50.788
 20
24.023
 30
3.478
 70
   192
  0
VERTEX
  8
12PIA05-MAIN
  5
6811
 10
50.788
 20
25.813
 30
22.356
 70
   192
  0
VERTEX
  8
12PIA05-MAIN
  5
6812
 10
50.788
 20
24.132
 30
22.356
 70
   192
  0
VERTEX
  8
12PIA05-MAIN
  5
6813
 10
50.788
 20
24.972
 30
22.356
 70
   192
  0
VERTEX
  8
12PIA05-MAIN
  5
6814
 10
50.788
 20
28.543
 30
0.673
 70
   192
  0
VERTEX
  8
12PIA05-MAIN
  5
6815
 10
50.788
 20
21.401
 30
0.673
 70
   192
  0
VERTEX
  8
12PIA05-MAIN
  5
6816
 10
50.788
 20
24.972
 30
0.673
 70
   192
  0
VERTEX
  8
12PIA05-MAIN
  5
6817
 10
50.788
 20
18.446
 30
25.982
 70
   192
  0
VERTEX
  8
12PIA05-MAIN
  5
6818
 10
50.788
 20
31.498
 30
25.982
 70
   192
  0
VERTEX
  8
12PIA05-MAIN
  5
6819
 10
50.788
 20
24.972
 30
25.982
 70
   192
  0
VERTEX
  8
12PIA05-MAIN
  5
681A
 10
49.481
 20
24.973
 30
22.356
 70
   192
  0
VERTEX
  8
12PIA05-MAIN
  5
681B
 10
49.481
 20
24.974
 30
22.356
 70
   192
  0
VERTEX
  8
12PIA05-MAIN
  5
681C
 10
49.481
 20
28.544
 30
0.673
 70
   192
  0
VERTEX
  8
12PIA05-MAIN
  5
681D
 10
49.481
 20
21.402
 30
0.673
 70
   192
  0
VERTEX
  8
12PIA05-MAIN
  5
681E
 10
49.481
 20
24.973
 30
0.673
 70
   192
  0
VERTEX
  8
12PIA05-MAIN
  5
681F
 10
49.481
 20
18.448
 30
25.982
 70
   192
  0
VERTEX
  8
12PIA05-MAIN
  5
6820
 10
49.481
 20
31.499
 30
25.982
 70
   192
  0
VERTEX
  8
12PIA05-MAIN
  5
6821
 10
49.481
 20
24.973
 30
25.982
 70
   192
  0
VERTEX
  8
12PIA05-MAIN
  5
6822
 10
50.788
 20
21.4
 30
0.673
 70
   192
  0
VERTEX
  8
12PIA05-MAIN
  5
6823
 10
50.788
 20
24.971
 30
0.673
 70
   192
  0
VERTEX
  8
12PIA05-MAIN
  5
6824
 10
49.481
 20
24.974
 30
0.673
 70
   192
  0
VERTEX
  8
12PIA05-MAIN
  5
6825
 10
49.481
 20
28.546
 30
0.673
 70
   192
  0
VERTEX
  8
12PIA05-MAIN
  5
6826
 10
-5.632
 20
19.385
 30
24.995
 70
   192
  0
VERTEX
  8
12PIA05-MAIN
  5
6827
 10
-5.632
 20
17.893
 30
24.462
 70
   192
  0
VERTEX
  8
12PIA05-MAIN
  5
6828
 10
-2.332
 20
17.893
 30
24.462
 70
   192
  0
VERTEX
  8
12PIA05-MAIN
  5
6829
 10
-2.332
 20
19.385
 30
24.995
 70
   192
  0
VERTEX
  8
12PIA05-MAIN
  5
682A
 10
-5.632
 20
15.566
 30
22.184
 70
   192
  0
VERTEX
  8
12PIA05-MAIN
  5
682B
 10
-5.632
 20
16.295
 30
22.249
 70
   192
  0
VERTEX
  8
12PIA05-MAIN
  5
682C
 10
-2.332
 20
15.566
 30
22.184
 70
   192
  0
VERTEX
  8
12PIA05-MAIN
  5
682D
 10
-2.332
 20
16.295
 30
22.249
 70
   192
  0
VERTEX
  8
12PIA05-MAIN
  5
682E
 10
-5.632
 20
14.93
 30
21.17
 70
   192
  0
VERTEX
  8
12PIA05-MAIN
  5
682F
 10
-5.632
 20
15.566
 30
21.17
 70
   192
  0
VERTEX
  8
12PIA05-MAIN
  5
6830
 10
-2.332
 20
14.93
 30
21.17
 70
   192
  0
VERTEX
  8
12PIA05-MAIN
  5
6831
 10
-2.332
 20
15.566
 30
21.17
 70
   192
  0
VERTEX
  8
12PIA05-MAIN
  5
6832
 10
-5.632
 20
11.472
 30
21.17
 70
   192
  0
VERTEX
  8
12PIA05-MAIN
  5
6833
 10
-5.632
 20
12.109
 30
21.17
 70
   192
  0
VERTEX
  8
12PIA05-MAIN
  5
6834
 10
-2.332
 20
11.472
 30
21.17
 70
   192
  0
VERTEX
  8
12PIA05-MAIN
  5
6835
 10
-2.332
 20
12.109
 30
21.17
 70
   192
  0
VERTEX
  8
12PIA05-MAIN
  5
6836
 10
-5.632
 20
10.744
 30
22.249
 70
   192
  0
VERTEX
  8
12PIA05-MAIN
  5
6837
 10
-5.632
 20
11.472
 30
22.184
 70
   192
  0
VERTEX
  8
12PIA05-MAIN
  5
6838
 10
-2.332
 20
10.744
 30
22.249
 70
   192
  0
VERTEX
  8
12PIA05-MAIN
  5
6839
 10
-2.332
 20
11.472
 30
22.184
 70
   192
  0
VERTEX
  8
12PIA05-MAIN
  5
683A
 10
-5.632
 20
7.655
 30
24.995
 70
   192
  0
VERTEX
  8
12PIA05-MAIN
  5
683B
 10
-5.632
 20
9.146
 30
24.462
 70
   192
  0
VERTEX
  8
12PIA05-MAIN
  5
683C
 10
-2.332
 20
7.655
 30
24.995
 70
   192
  0
VERTEX
  8
12PIA05-MAIN
  5
683D
 10
-2.332
 20
9.146
 30
24.462
 70
   192
  0
VERTEX
  8
12PIA05-MAIN
  5
683E
 10
-5.632
 20
7.154
 30
25.981
 70
   192
  0
VERTEX
  8
12PIA05-MAIN
  5
683F
 10
-5.632
 20
19.885
 30
25.981
 70
   192
  0
VERTEX
  8
12PIA05-MAIN
  5
6840
 10
-2.332
 20
19.885
 30
25.981
 70
   192
  0
VERTEX
  8
12PIA05-MAIN
  5
6841
 10
-2.332
 20
7.154
 30
25.981
 70
   192
  0
VERTEX
  8
12PIA05-MAIN
  5
6842
 10
62.74
 20
-0.54
 30
25.982
 70
   192
  0
VERTEX
  8
12PIA05-MAIN
  5
6843
 10
61.718
 20
-0.54
 30
25.982
 70
   192
  0
VERTEX
  8
12PIA05-MAIN
  5
6844
 10
62.74
 20
50.484
 30
25.982
 70
   192
  0
VERTEX
  8
12PIA05-MAIN
  5
6845
 10
61.718
 20
50.484
 30
25.982
 70
   192
  0
VERTEX
  8
12PIA05-MAIN
  5
6846
 10
61.718
 20
50.484
 30
28.116
 70
   192
  0
VERTEX
  8
12PIA05-MAIN
  5
6847
 10
62.74
 20
50.484
 30
28.116
 70
   192
  0
VERTEX
  8
12PIA05-MAIN
  5
6848
 10
62.74
 20
-0.54
 30
28.116
 70
   192
  0
VERTEX
  8
12PIA05-MAIN
  5
6849
 10
61.718
 20
-0.54
 30
28.116
 70
   192
  0
VERTEX
  8
12PIA05-MAIN
  5
684A
 10
60.421
 20
50.484
 30
30.401
 70
   192
  0
VERTEX
  8
12PIA05-MAIN
  5
684B
 10
59.314
 20
50.484
 30
30.755
 70
   192
  0
VERTEX
  8
12PIA05-MAIN
  5
684C
 10
59.314
 20
-0.54
 30
30.755
 70
   192
  0
VERTEX
  8
12PIA05-MAIN
  5
684D
 10
60.421
 20
-0.54
 30
30.401
 70
   192
  0
VERTEX
  8
12PIA05-MAIN
  5
684E
 10
57.576
 20
50.484
 30
30.763
 70
   192
  0
VERTEX
  8
12PIA05-MAIN
  5
684F
 10
57.576
 20
-0.54
 30
30.763
 70
   192
  0
VERTEX
  8
12PIA05-MAIN
  5
6850
 10
55.972
 20
50.484
 30
31.076
 70
   192
  0
VERTEX
  8
12PIA05-MAIN
  5
6851
 10
55.972
 20
-0.54
 30
31.076
 70
   192
  0
VERTEX
  8
12PIA05-MAIN
  5
6852
 10
54.82
 20
50.484
 30
31.992
 70
   192
  0
VERTEX
  8
12PIA05-MAIN
  5
6853
 10
54.82
 20
-0.54
 30
31.992
 70
   192
  0
VERTEX
  8
12PIA05-MAIN
  5
6854
 10
54.022
 20
50.484
 30
33.438
 70
   192
  0
VERTEX
  8
12PIA05-MAIN
  5
6855
 10
54.022
 20
-0.54
 30
33.438
 70
   192
  0
VERTEX
  8
12PIA05-MAIN
  5
6856
 10
50.788
 20
50.484
 30
37.934
 70
   192
  0
VERTEX
  8
12PIA05-MAIN
  5
6857
 10
53.776
 20
-0.54
 30
37.934
 70
   192
  0
VERTEX
  8
12PIA05-MAIN
  5
6858
 10
50.788
 20
-0.54
 30
37.933
 70
   192
  0
VERTEX
  8
12PIA05-MAIN
  5
6859
 10
53.776
 20
50.484
 30
37.934
 70
   192
  0
VERTEX
  8
12PIA05-MAIN
  5
685A
 10
0.0
 20
0.0
 30
0.0
 70
   128
 71
     1
 72
     2
 73
    -3
  0
VERTEX
  8
12PIA05-MAIN
  5
685B
 10
0.0
 20
0.0
 30
0.0
 70
   128
 71
     3
 72
     4
 73
    -1
  0
VERTEX
  8
12PIA05-MAIN
  5
685C
 10
0.0
 20
0.0
 30
0.0
 70
   128
 71
     5
 72
     6
 73
    -7
  0
VERTEX
  8
12PIA05-MAIN
  5
685D
 10
0.0
 20
0.0
 30
0.0
 70
   128
 71
     7
 72
     8
 73
    -5
  0
VERTEX
  8
12PIA05-MAIN
  5
685E
 10
0.0
 20
0.0
 30
0.0
 70
   128
 71
     9
 72
   -10
 73
    11
  0
VERTEX
  8
12PIA05-MAIN
  5
685F
 10
0.0
 20
0.0
 30
0.0
 70
   128
 71
    12
 72
   -11
 73
    10
  0
VERTEX
  8
12PIA05-MAIN
  5
6860
 10
0.0
 20
0.0
 30
0.0
 70
   128
 71
   -13
 72
    14
 73
    15
  0
VERTEX
  8
12PIA05-MAIN
  5
6861
 10
0.0
 20
0.0
 30
0.0
 70
   128
 71
    16
 72
   -14
 73
    13
  0
VERTEX
  8
12PIA05-MAIN
  5
6862
 10
0.0
 20
0.0
 30
0.0
 70
   128
 71
    17
 72
    18
 73
    19
  0
VERTEX
  8
12PIA05-MAIN
  5
6863
 10
0.0
 20
0.0
 30
0.0
 70
   128
 71
    20
 72
    21
 73
    22
  0
VERTEX
  8
12PIA05-MAIN
  5
6864
 10
0.0
 20
0.0
 30
0.0
 70
   128
 71
    23
 72
    24
 73
    25
  0
VERTEX
  8
12PIA05-MAIN
  5
6865
 10
0.0
 20
0.0
 30
0.0
 70
   128
 71
    26
 72
    27
 73
    -3
  0
VERTEX
  8
12PIA05-MAIN
  5
6866
 10
0.0
 20
0.0
 30
0.0
 70
   128
 71
     3
 72
    11
 73
   -26
  0
VERTEX
  8
12PIA05-MAIN
  5
6867
 10
0.0
 20
0.0
 30
0.0
 70
   128
 71
    28
 72
    29
 73
    30
  0
VERTEX
  8
12PIA05-MAIN
  5
6868
 10
0.0
 20
0.0
 30
0.0
 70
   128
 71
    31
 72
    32
 73
    33
  0
VERTEX
  8
12PIA05-MAIN
  5
6869
 10
0.0
 20
0.0
 30
0.0
 70
   128
 71
    34
 72
    35
 73
   -30
  0
VERTEX
  8
12PIA05-MAIN
  5
686A
 10
0.0
 20
0.0
 30
0.0
 70
   128
 71
    30
 72
    29
 73
   -34
  0
VERTEX
  8
12PIA05-MAIN
  5
686B
 10
0.0
 20
0.0
 30
0.0
 70
   128
 71
    20
 72
    22
 73
   -36
  0
VERTEX
  8
12PIA05-MAIN
  5
686C
 10
0.0
 20
0.0
 30
0.0
 70
   128
 71
    36
 72
    37
 73
   -20
  0
VERTEX
  8
12PIA05-MAIN
  5
686D
 10
0.0
 20
0.0
 30
0.0
 70
   128
 71
    38
 72
    39
 73
   -40
  0
VERTEX
  8
12PIA05-MAIN
  5
686E
 10
0.0
 20
0.0
 30
0.0
 70
   128
 71
    40
 72
    41
 73
   -38
  0
VERTEX
  8
12PIA05-MAIN
  5
686F
 10
0.0
 20
0.0
 30
0.0
 70
   128
 71
    42
 72
   -43
 73
    44
  0
VERTEX
  8
12PIA05-MAIN
  5
6870
 10
0.0
 20
0.0
 30
0.0
 70
   128
 71
    45
 72
   -44
 73
    43
  0
VERTEX
  8
12PIA05-MAIN
  5
6871
 10
0.0
 20
0.0
 30
0.0
 70
   128
 71
    46
 72
   -47
 73
    48
  0
VERTEX
  8
12PIA05-MAIN
  5
6872
 10
0.0
 20
0.0
 30
0.0
 70
   128
 71
    49
 72
   -48
 73
    47
  0
VERTEX
  8
12PIA05-MAIN
  5
6873
 10
0.0
 20
0.0
 30
0.0
 70
   128
 71
    50
 72
   -51
 73
    52
  0
VERTEX
  8
12PIA05-MAIN
  5
6874
 10
0.0
 20
0.0
 30
0.0
 70
   128
 71
    53
 72
   -52
 73
    51
  0
VERTEX
  8
12PIA05-MAIN
  5
6875
 10
0.0
 20
0.0
 30
0.0
 70
   128
 71
    54
 72
   -55
 73
    56
  0
VERTEX
  8
12PIA05-MAIN
  5
6876
 10
0.0
 20
0.0
 30
0.0
 70
   128
 71
    57
 72
   -56
 73
    55
  0
VERTEX
  8
12PIA05-MAIN
  5
6877
 10
0.0
 20
0.0
 30
0.0
 70
   128
 71
    58
 72
   -59
 73
    60
  0
VERTEX
  8
12PIA05-MAIN
  5
6878
 10
0.0
 20
0.0
 30
0.0
 70
   128
 71
    61
 72
   -60
 73
    59
  0
VERTEX
  8
12PIA05-MAIN
  5
6879
 10
0.0
 20
0.0
 30
0.0
 70
   128
 71
    62
 72
    63
 73
   -64
  0
VERTEX
  8
12PIA05-MAIN
  5
687A
 10
0.0
 20
0.0
 30
0.0
 70
   128
 71
    64
 72
    65
 73
   -62
  0
VERTEX
  8
12PIA05-MAIN
  5
687B
 10
0.0
 20
0.0
 30
0.0
 70
   128
 71
    66
 72
   -67
 73
    68
  0
VERTEX
  8
12PIA05-MAIN
  5
687C
 10
0.0
 20
0.0
 30
0.0
 70
   128
 71
    69
 72
   -68
 73
    67
  0
VERTEX
  8
12PIA05-MAIN
  5
687D
 10
0.0
 20
0.0
 30
0.0
 70
   128
 71
    70
 72
    71
 73
   -72
  0
VERTEX
  8
12PIA05-MAIN
  5
687E
 10
0.0
 20
0.0
 30
0.0
 70
   128
 71
    72
 72
    73
 73
   -70
  0
VERTEX
  8
12PIA05-MAIN
  5
687F
 10
0.0
 20
0.0
 30
0.0
 70
   128
 71
    74
 72
    75
 73
   -76
  0
VERTEX
  8
12PIA05-MAIN
  5
6880
 10
0.0
 20
0.0
 30
0.0
 70
   128
 71
    76
 72
    77
 73
   -74
  0
VERTEX
  8
12PIA05-MAIN
  5
6881
 10
0.0
 20
0.0
 30
0.0
 70
   128
 71
    75
 72
    78
 73
   -79
  0
VERTEX
  8
12PIA05-MAIN
  5
6882
 10
0.0
 20
0.0
 30
0.0
 70
   128
 71
    79
 72
    76
 73
   -75
  0
VERTEX
  8
12PIA05-MAIN
  5
6883
 10
0.0
 20
0.0
 30
0.0
 70
   128
 71
    78
 72
    80
 73
   -81
  0
VERTEX
  8
12PIA05-MAIN
  5
6884
 10
0.0
 20
0.0
 30
0.0
 70
   128
 71
    81
 72
    79
 73
   -78
  0
VERTEX
  8
12PIA05-MAIN
  5
6885
 10
0.0
 20
0.0
 30
0.0
 70
   128
 71
    80
 72
    82
 73
   -83
  0
VERTEX
  8
12PIA05-MAIN
  5
6886
 10
0.0
 20
0.0
 30
0.0
 70
   128
 71
    83
 72
    81
 73
   -80
  0
VERTEX
  8
12PIA05-MAIN
  5
6887
 10
0.0
 20
0.0
 30
0.0
 70
   128
 71
    82
 72
    84
 73
   -85
  0
VERTEX
  8
12PIA05-MAIN
  5
6888
 10
0.0
 20
0.0
 30
0.0
 70
   128
 71
    85
 72
    83
 73
   -82
  0
VERTEX
  8
12PIA05-MAIN
  5
6889
 10
0.0
 20
0.0
 30
0.0
 70
   128
 71
   -86
 72
    87
 73
    88
  0
VERTEX
  8
12PIA05-MAIN
  5
688A
 10
0.0
 20
0.0
 30
0.0
 70
   128
 71
    89
 72
   -87
 73
    86
  0
SEQEND
  8
12PIA05-MAIN
  5
688B
  0
POLYLINE
  8
12PIA05-MAIN
  5
68A5
 66
     1
 10
0.0
 20
0.0
 30
0.0
 70
    64
 71
    44
 72
    24
1001
AVE_ENTITY_MATERIAL
1002
{
1000

1002
{
1071
        0
1070
     0
1070
     0
1002
{
1070
     0
1070
     0
1070
     0
1040
0.0
1002
}
1070
     0
1070
     0
1002
{
1002
}
1002
}
1002
{
1002
}
1002
{
1002
}
1011
0.0
1021
0.0
1031
0.0
1011
1.0
1021
0.0
1031
0.0
1011
0.0
1021
1.0
1031
0.0
1011
0.0
1021
0.0
1031
1.0
1002
}
1001
AVE_FINISH
1002
{
1070
     0
1005
6773
1002
}
  0
VERTEX
  8
12PIA05-MAIN
  5
68A6
 10
62.74
 20
50.484
 30
25.982
 70
   192
  0
VERTEX
  8
12PIA05-MAIN
  5
68A7
 10
50.788
 20
53.472
 30
25.982
 70
   192
  0
VERTEX
  8
12PIA05-MAIN
  5
68A8
 10
62.74
 20
53.472
 30
25.982
 70
   192
  0
VERTEX
  8
12PIA05-MAIN
  5
68A9
 10
50.788
 20
50.484
 30
25.981
 70
   192
  0
VERTEX
  8
12PIA05-MAIN
  5
68AA
 10
59.74
 20
50.484
 30
31.957
 70
   192
  0
VERTEX
  8
12PIA05-MAIN
  5
68AB
 10
60.766
 20
53.472
 30
31.741
 70
   192
  0
VERTEX
  8
12PIA05-MAIN
  5
68AC
 10
59.74
 20
53.472
 30
31.958
 70
   192
  0
VERTEX
  8
12PIA05-MAIN
  5
68AD
 10
60.766
 20
50.484
 30
31.741
 70
   192
  0
VERTEX
  8
12PIA05-MAIN
  5
68AE
 10
57.251
 20
50.484
 30
32.012
 70
   192
  0
VERTEX
  8
12PIA05-MAIN
  5
68AF
 10
57.251
 20
53.472
 30
32.012
 70
   192
  0
VERTEX
  8
12PIA05-MAIN
  5
68B0
 10
56.272
 20
50.484
 30
32.44
 70
   192
  0
VERTEX
  8
12PIA05-MAIN
  5
68B1
 10
56.272
 20
53.472
 30
32.44
 70
   192
  0
VERTEX
  8
12PIA05-MAIN
  5
68B2
 10
54.772
 20
50.484
 30
37.934
 70
   192
  0
VERTEX
  8
12PIA05-MAIN
  5
68B3
 10
50.788
 20
50.484
 30
37.934
 70
   192
  0
VERTEX
  8
12PIA05-MAIN
  5
68B4
 10
50.788
 20
53.472
 30
37.934
 70
   192
  0
VERTEX
  8
12PIA05-MAIN
  5
68B5
 10
54.772
 20
53.472
 30
37.934
 70
   192
  0
VERTEX
  8
12PIA05-MAIN
  5
68B6
 10
57.942
 20
52.884
 30
24.463
 70
   192
  0
VERTEX
  8
12PIA05-MAIN
  5
68B7
 10
59.826
 20
52.884
 30
24.996
 70
   192
  0
VERTEX
  8
12PIA05-MAIN
  5
68B8
 10
57.942
 20
50.384
 30
24.463
 70
   192
  0
VERTEX
  8
12PIA05-MAIN
  5
68B9
 10
59.826
 20
50.384
 30
24.996
 70
   192
  0
VERTEX
  8
12PIA05-MAIN
  5
68BA
 10
55.004
 20
52.884
 30
22.186
 70
   192
  0
VERTEX
  8
12PIA05-MAIN
  5
68BB
 10
55.925
 20
52.884
 30
22.25
 70
   192
  0
VERTEX
  8
12PIA05-MAIN
  5
68BC
 10
55.004
 20
50.384
 30
22.186
 70
   192
  0
VERTEX
  8
12PIA05-MAIN
  5
68BD
 10
55.925
 20
50.384
 30
22.25
 70
   192
  0
VERTEX
  8
12PIA05-MAIN
  5
68BE
 10
54.202
 20
52.884
 30
21.172
 70
   192
  0
VERTEX
  8
12PIA05-MAIN
  5
68BF
 10
55.004
 20
52.884
 30
21.172
 70
   192
  0
VERTEX
  8
12PIA05-MAIN
  5
68C0
 10
54.202
 20
50.384
 30
21.172
 70
   192
  0
VERTEX
  8
12PIA05-MAIN
  5
68C1
 10
55.004
 20
50.384
 30
21.172
 70
   192
  0
VERTEX
  8
12PIA05-MAIN
  5
68C2
 10
49.835
 20
52.884
 30
21.172
 70
   192
  0
VERTEX
  8
12PIA05-MAIN
  5
68C3
 10
50.639
 20
52.884
 30
21.172
 70
   192
  0
VERTEX
  8
12PIA05-MAIN
  5
68C4
 10
49.835
 20
50.384
 30
21.172
 70
   192
  0
VERTEX
  8
12PIA05-MAIN
  5
68C5
 10
50.639
 20
50.384
 30
21.172
 70
   192
  0
VERTEX
  8
12PIA05-MAIN
  5
68C6
 10
49.835
 20
52.884
 30
22.186
 70
   192
  0
VERTEX
  8
12PIA05-MAIN
  5
68C7
 10
48.916
 20
52.884
 30
22.25
 70
   192
  0
VERTEX
  8
12PIA05-MAIN
  5
68C8
 10
48.916
 20
50.384
 30
22.25
 70
   192
  0
VERTEX
  8
12PIA05-MAIN
  5
68C9
 10
49.835
 20
50.384
 30
22.186
 70
   192
  0
VERTEX
  8
12PIA05-MAIN
  5
68CA
 10
46.898
 20
52.884
 30
24.463
 70
   192
  0
VERTEX
  8
12PIA05-MAIN
  5
68CB
 10
45.014
 20
52.884
 30
24.996
 70
   192
  0
VERTEX
  8
12PIA05-MAIN
  5
68CC
 10
45.014
 20
50.384
 30
24.996
 70
   192
  0
VERTEX
  8
12PIA05-MAIN
  5
68CD
 10
46.898
 20
50.384
 30
24.463
 70
   192
  0
VERTEX
  8
12PIA05-MAIN
  5
68CE
 10
44.383
 20
52.884
 30
25.982
 70
   192
  0
VERTEX
  8
12PIA05-MAIN
  5
68CF
 10
60.457
 20
52.884
 30
25.982
 70
   192
  0
VERTEX
  8
12PIA05-MAIN
  5
68D0
 10
60.457
 20
50.384
 30
25.982
 70
   192
  0
VERTEX
  8
12PIA05-MAIN
  5
68D1
 10
44.383
 20
50.384
 30
25.982
 70
   192
  0
VERTEX
  8
12PIA05-MAIN
  5
68D2
 10
0.0
 20
0.0
 30
0.0
 70
   128
 71
    -1
 72
     2
 73
     3
  0
VERTEX
  8
12PIA05-MAIN
  5
68D3
 10
0.0
 20
0.0
 30
0.0
 70
   128
 71
     4
 72
    -2
 73
     1
  0
VERTEX
  8
12PIA05-MAIN
  5
68D4
 10
0.0
 20
0.0
 30
0.0
 70
   128
 71
    -5
 72
     6
 73
     7
  0
VERTEX
  8
12PIA05-MAIN
  5
68D5
 10
0.0
 20
0.0
 30
0.0
 70
   128
 71
     8
 72
    -6
 73
     5
  0
VERTEX
  8
12PIA05-MAIN
  5
68D6
 10
0.0
 20
0.0
 30
0.0
 70
   128
 71
    -9
 72
     7
 73
    10
  0
VERTEX
  8
12PIA05-MAIN
  5
68D7
 10
0.0
 20
0.0
 30
0.0
 70
   128
 71
     5
 72
    -7
 73
     9
  0
VERTEX
  8
12PIA05-MAIN
  5
68D8
 10
0.0
 20
0.0
 30
0.0
 70
   128
 71
    11
 72
    -9
 73
    12
  0
VERTEX
  8
12PIA05-MAIN
  5
68D9
 10
0.0
 20
0.0
 30
0.0
 70
   128
 71
    10
 72
   -12
 73
     9
  0
VERTEX
  8
12PIA05-MAIN
  5
68DA
 10
0.0
 20
0.0
 30
0.0
 70
   128
 71
    13
 72
    14
 73
   -15
  0
VERTEX
  8
12PIA05-MAIN
  5
68DB
 10
0.0
 20
0.0
 30
0.0
 70
   128
 71
    15
 72
    16
 73
   -13
  0
VERTEX
  8
12PIA05-MAIN
  5
68DC
 10
0.0
 20
0.0
 30
0.0
 70
   128
 71
    17
 72
   -18
 73
    19
  0
VERTEX
  8
12PIA05-MAIN
  5
68DD
 10
0.0
 20
0.0
 30
0.0
 70
   128
 71
    20
 72
   -19
 73
    18
  0
VERTEX
  8
12PIA05-MAIN
  5
68DE
 10
0.0
 20
0.0
 30
0.0
 70
   128
 71
    21
 72
   -22
 73
    23
  0
VERTEX
  8
12PIA05-MAIN
  5
68DF
 10
0.0
 20
0.0
 30
0.0
 70
   128
 71
    24
 72
   -23
 73
    22
  0
VERTEX
  8
12PIA05-MAIN
  5
68E0
 10
0.0
 20
0.0
 30
0.0
 70
   128
 71
    25
 72
   -26
 73
    27
  0
VERTEX
  8
12PIA05-MAIN
  5
68E1
 10
0.0
 20
0.0
 30
0.0
 70
   128
 71
    28
 72
   -27
 73
    26
  0
VERTEX
  8
12PIA05-MAIN
  5
68E2
 10
0.0
 20
0.0
 30
0.0
 70
   128
 71
    29
 72
   -30
 73
    31
  0
VERTEX
  8
12PIA05-MAIN
  5
68E3
 10
0.0
 20
0.0
 30
0.0
 70
   128
 71
    32
 72
   -31
 73
    30
  0
VERTEX
  8
12PIA05-MAIN
  5
68E4
 10
0.0
 20
0.0
 30
0.0
 70
   128
 71
    33
 72
    34
 73
   -35
  0
VERTEX
  8
12PIA05-MAIN
  5
68E5
 10
0.0
 20
0.0
 30
0.0
 70
   128
 71
    35
 72
    36
 73
   -33
  0
VERTEX
  8
12PIA05-MAIN
  5
68E6
 10
0.0
 20
0.0
 30
0.0
 70
   128
 71
    37
 72
    38
 73
   -39
  0
VERTEX
  8
12PIA05-MAIN
  5
68E7
 10
0.0
 20
0.0
 30
0.0
 70
   128
 71
    39
 72
    40
 73
   -37
  0
VERTEX
  8
12PIA05-MAIN
  5
68E8
 10
0.0
 20
0.0
 30
0.0
 70
   128
 71
    41
 72
    42
 73
   -43
  0
VERTEX
  8
12PIA05-MAIN
  5
68E9
 10
0.0
 20
0.0
 30
0.0
 70
   128
 71
    43
 72
    44
 73
   -41
  0
SEQEND
  8
12PIA05-MAIN
  5
68EA
  0
POLYLINE
  8
12PIA05-MAIN
  5
68EB
 66
     1
 10
0.0
 20
0.0
 30
0.0
 70
    64
 71
    44
 72
    34
1001
AVE_ENTITY_MATERIAL
1002
{
1000

1002
{
1071
        0
1070
     0
1070
     0
1002
{
1070
     0
1070
     0
1070
     0
1040
0.0
1002
}
1070
     0
1070
     0
1002
{
1002
}
1002
}
1002
{
1002
}
1002
{
1002
}
1011
0.0
1021
0.0
1031
0.0
1011
1.0
1021
0.0
1031
0.0
1011
0.0
1021
1.0
1031
0.0
1011
0.0
1021
0.0
1031
1.0
1002
}
1001
AVE_FINISH
1002
{
1070
     0
1005
663E
1002
}
  0
VERTEX
  8
12PIA05-MAIN
  5
68EC
 10
62.74
 20
50.484
 30
28.116
 70
   192
  0
VERTEX
  8
12PIA05-MAIN
  5
68ED
 10
62.74
 20
-0.54
 30
28.116
 70
   192
  0
VERTEX
  8
12PIA05-MAIN
  5
68EE
 10
62.74
 20
50.484
 30
25.982
 70
   192
  0
VERTEX
  8
12PIA05-MAIN
  5
68EF
 10
62.74
 20
-0.54
 30
25.982
 70
   192
  0
VERTEX
  8
12PIA05-MAIN
  5
68F0
 10
61.718
 20
-0.54
 30
28.116
 70
   192
  0
VERTEX
  8
12PIA05-MAIN
  5
68F1
 10
61.718
 20
50.484
 30
28.116
 70
   192
  0
VERTEX
  8
12PIA05-MAIN
  5
68F2
 10
61.718
 20
-0.54
 30
25.982
 70
   192
  0
VERTEX
  8
12PIA05-MAIN
  5
68F3
 10
61.718
 20
50.484
 30
25.982
 70
   192
  0
VERTEX
  8
12PIA05-MAIN
  5
68F4
 10
61.744
 20
-0.54
 30
25.981
 70
   192
  0
VERTEX
  8
12PIA05-MAIN
  5
68F5
 10
61.744
 20
50.484
 30
25.982
 70
   192
  0
VERTEX
  8
12PIA05-MAIN
  5
68F6
 10
61.288
 20
50.484
 30
29.47
 70
   192
  0
VERTEX
  8
12PIA05-MAIN
  5
68F7
 10
61.288
 20
-0.54
 30
29.47
 70
   192
  0
VERTEX
  8
12PIA05-MAIN
  5
68F8
 10
60.421
 20
50.484
 30
30.401
 70
   192
  0
VERTEX
  8
12PIA05-MAIN
  5
68F9
 10
60.421
 20
-0.54
 30
30.401
 70
   192
  0
VERTEX
  8
12PIA05-MAIN
  5
68FA
 10
54.022
 20
50.484
 30
33.438
 70
   192
  0
VERTEX
  8
12PIA05-MAIN
  5
68FB
 10
53.776
 20
50.484
 30
34.963
 70
   192
  0
VERTEX
  8
12PIA05-MAIN
  5
68FC
 10
53.776
 20
-0.54
 30
34.963
 70
   192
  0
VERTEX
  8
12PIA05-MAIN
  5
68FD
 10
54.022
 20
-0.54
 30
33.438
 70
   192
  0
VERTEX
  8
12PIA05-MAIN
  5
68FE
 10
53.776
 20
50.484
 30
37.934
 70
   192
  0
VERTEX
  8
12PIA05-MAIN
  5
68FF
 10
53.776
 20
-0.54
 30
37.934
 70
   192
  0
VERTEX
  8
12PIA05-MAIN
  5
6900
 10
50.788
 20
-3.528
 30
25.982
 70
   192
  0
VERTEX
  8
12PIA05-MAIN
  5
6901
 10
50.788
 20
53.472
 30
25.982
 70
   192
  0
VERTEX
  8
12PIA05-MAIN
  5
6902
 10
50.788
 20
53.472
 30
37.933
 70
   192
  0
VERTEX
  8
12PIA05-MAIN
  5
6903
 10
50.788
 20
-3.528
 30
37.934
 70
   192
  0
VERTEX
  8
12PIA05-MAIN
  5
6904
 10
-3.749
 20
22.946
 30
25.982
 70
   192
  0
VERTEX
  8
12PIA05-MAIN
  5
6905
 10
-1.267
 20
25.499
 30
37.934
 70
   192
  0
VERTEX
  8
12PIA05-MAIN
  5
6906
 10
-3.749
 20
22.946
 30
37.934
 70
   192
  0
VERTEX
  8
12PIA05-MAIN
  5
6907
 10
-1.267
 20
25.499
 30
25.981
 70
   192
  0
VERTEX
  8
12PIA05-MAIN
  5
6908
 10
-5.453
 20
20.324
 30
25.981
 70
   192
  0
VERTEX
  8
12PIA05-MAIN
  5
6909
 10
-5.453
 20
20.324
 30
37.933
 70
   192
  0
VERTEX
  8
12PIA05-MAIN
  5
690A
 10
-6.73
 20
17.039
 30
25.981
 70
   192
  0
VERTEX
  8
12PIA05-MAIN
  5
690B
 10
-6.73
 20
17.039
 30
37.934
 70
   192
  0
VERTEX
  8
12PIA05-MAIN
  5
690C
 10
-7.206
 20
13.986
 30
25.981
 70
   192
  0
VERTEX
  8
12PIA05-MAIN
  5
690D
 10
-7.206
 20
13.986
 30
37.933
 70
   192
  0
VERTEX
  8
12PIA05-MAIN
  5
690E
 10
-7.046
 20
10.847
 30
25.981
 70
   192
  0
VERTEX
  8
12PIA05-MAIN
  5
690F
 10
-7.046
 20
10.847
 30
37.933
 70
   192
  0
VERTEX
  8
12PIA05-MAIN
  5
6910
 10
-6.276
 20
7.906
 30
25.981
 70
   192
  0
VERTEX
  8
12PIA05-MAIN
  5
6911
 10
-6.276
 20
7.906
 30
37.934
 70
   192
  0
VERTEX
  8
12PIA05-MAIN
  5
6912
 10
-4.783
 20
4.854
 30
25.982
 70
   192
  0
VERTEX
  8
12PIA05-MAIN
  5
6913
 10
-4.783
 20
4.854
 30
37.934
 70
   192
  0
VERTEX
  8
12PIA05-MAIN
  5
6914
 10
-2.701
 20
2.262
 30
25.982
 70
   192
  0
VERTEX
  8
12PIA05-MAIN
  5
6915
 10
-2.701
 20
2.262
 30
37.934
 70
   192
  0
VERTEX
  8
12PIA05-MAIN
  5
6916
 10
0.0
 20
0.0
 30
25.981
 70
   192
  0
VERTEX
  8
12PIA05-MAIN
  5
6917
 10
0.0
 20
0.0
 30
37.933
 70
   192
  0
VERTEX
  8
12PIA05-MAIN
  5
6918
 10
0.0
 20
0.0
 30
0.0
 70
   128
 71
     1
 72
    -2
 73
     3
  0
VERTEX
  8
12PIA05-MAIN
  5
6919
 10
0.0
 20
0.0
 30
0.0
 70
   128
 71
     4
 72
    -3
 73
     2
  0
VERTEX
  8
12PIA05-MAIN
  5
691A
 10
0.0
 20
0.0
 30
0.0
 70
   128
 71
     5
 72
    -6
 73
     7
  0
VERTEX
  8
12PIA05-MAIN
  5
691B
 10
0.0
 20
0.0
 30
0.0
 70
   128
 71
     8
 72
    -7
 73
     6
  0
VERTEX
  8
12PIA05-MAIN
  5
691C
 10
0.0
 20
0.0
 30
0.0
 70
   128
 71
    -9
 72
     6
 73
     5
  0
VERTEX
  8
12PIA05-MAIN
  5
691D
 10
0.0
 20
0.0
 30
0.0
 70
   128
 71
     9
 72
    10
 73
    -6
  0
VERTEX
  8
12PIA05-MAIN
  5
691E
 10
0.0
 20
0.0
 30
0.0
 70
   128
 71
     6
 72
    11
 73
   -12
  0
VERTEX
  8
12PIA05-MAIN
  5
691F
 10
0.0
 20
0.0
 30
0.0
 70
   128
 71
    12
 72
     5
 73
    -6
  0
VERTEX
  8
12PIA05-MAIN
  5
6920
 10
0.0
 20
0.0
 30
0.0
 70
   128
 71
    11
 72
    13
 73
   -14
  0
VERTEX
  8
12PIA05-MAIN
  5
6921
 10
0.0
 20
0.0
 30
0.0
 70
   128
 71
    14
 72
    12
 73
   -11
  0
VERTEX
  8
12PIA05-MAIN
  5
6922
 10
0.0
 20
0.0
 30
0.0
 70
   128
 71
    15
 72
    16
 73
   -17
  0
VERTEX
  8
12PIA05-MAIN
  5
6923
 10
0.0
 20
0.0
 30
0.0
 70
   128
 71
    17
 72
    18
 73
   -15
  0
VERTEX
  8
12PIA05-MAIN
  5
6924
 10
0.0
 20
0.0
 30
0.0
 70
   128
 71
    16
 72
    19
 73
   -20
  0
VERTEX
  8
12PIA05-MAIN
  5
6925
 10
0.0
 20
0.0
 30
0.0
 70
   128
 71
    20
 72
    17
 73
   -16
  0
VERTEX
  8
12PIA05-MAIN
  5
6926
 10
0.0
 20
0.0
 30
0.0
 70
   128
 71
    21
 72
    22
 73
   -23
  0
VERTEX
  8
12PIA05-MAIN
  5
6927
 10
0.0
 20
0.0
 30
0.0
 70
   128
 71
    23
 72
    24
 73
   -21
  0
VERTEX
  8
12PIA05-MAIN
  5
6928
 10
0.0
 20
0.0
 30
0.0
 70
   128
 71
   -25
 72
    26
 73
    27
  0
VERTEX
  8
12PIA05-MAIN
  5
6929
 10
0.0
 20
0.0
 30
0.0
 70
   128
 71
    28
 72
   -26
 73
    25
  0
VERTEX
  8
12PIA05-MAIN
  5
692A
 10
0.0
 20
0.0
 30
0.0
 70
   128
 71
    29
 72
   -25
 73
    30
  0
VERTEX
  8
12PIA05-MAIN
  5
692B
 10
0.0
 20
0.0
 30
0.0
 70
   128
 71
    27
 72
   -30
 73
    25
  0
VERTEX
  8
12PIA05-MAIN
  5
692C
 10
0.0
 20
0.0
 30
0.0
 70
   128
 71
   -31
 72
    30
 73
    32
  0
VERTEX
  8
12PIA05-MAIN
  5
692D
 10
0.0
 20
0.0
 30
0.0
 70
   128
 71
    29
 72
   -30
 73
    31
  0
VERTEX
  8
12PIA05-MAIN
  5
692E
 10
0.0
 20
0.0
 30
0.0
 70
   128
 71
   -33
 72
    32
 73
    34
  0
VERTEX
  8
12PIA05-MAIN
  5
692F
 10
0.0
 20
0.0
 30
0.0
 70
   128
 71
    31
 72
   -32
 73
    33
  0
VERTEX
  8
12PIA05-MAIN
  5
6930
 10
0.0
 20
0.0
 30
0.0
 70
   128
 71
    35
 72
   -33
 73
    36
  0
VERTEX
  8
12PIA05-MAIN
  5
6931
 10
0.0
 20
0.0
 30
0.0
 70
   128
 71
    34
 72
   -36
 73
    33
  0
VERTEX
  8
12PIA05-MAIN
  5
6932
 10
0.0
 20
0.0
 30
0.0
 70
   128
 71
    37
 72
   -35
 73
    38
  0
VERTEX
  8
12PIA05-MAIN
  5
6933
 10
0.0
 20
0.0
 30
0.0
 70
   128
 71
    36
 72
   -38
 73
    35
  0
VERTEX
  8
12PIA05-MAIN
  5
6934
 10
0.0
 20
0.0
 30
0.0
 70
   128
 71
   -39
 72
    38
 73
    40
  0
VERTEX
  8
12PIA05-MAIN
  5
6935
 10
0.0
 20
0.0
 30
0.0
 70
   128
 71
    37
 72
   -38
 73
    39
  0
VERTEX
  8
12PIA05-MAIN
  5
6936
 10
0.0
 20
0.0
 30
0.0
 70
   128
 71
    41
 72
   -39
 73
    42
  0
VERTEX
  8
12PIA05-MAIN
  5
6937
 10
0.0
 20
0.0
 30
0.0
 70
   128
 71
    40
 72
   -42
 73
    39
  0
VERTEX
  8
12PIA05-MAIN
  5
6938
 10
0.0
 20
0.0
 30
0.0
 70
   128
 71
   -43
 72
    42
 73
    44
  0
VERTEX
  8
12PIA05-MAIN
  5
6939
 10
0.0
 20
0.0
 30
0.0
 70
   128
 71
    41
 72
   -42
 73
    43
  0
SEQEND
  8
12PIA05-MAIN
  5
693A
  0
POLYLINE
  8
12PIA05-MAIN
  5
693B
 66
     1
 10
0.0
 20
0.0
 30
0.0
 70
    64
 71
    50
 72
    44
1001
AVE_ENTITY_MATERIAL
1002
{
1000

1002
{
1071
        0
1070
     0
1070
     0
1002
{
1070
     0
1070
     0
1070
     0
1040
0.0
1002
}
1070
     0
1070
     0
1002
{
1002
}
1002
}
1002
{
1002
}
1002
{
1002
}
1011
0.0
1021
0.0
1031
0.0
1011
1.0
1021
0.0
1031
0.0
1011
0.0
1021
1.0
1031
0.0
1011
0.0
1021
0.0
1031
1.0
1002
}
1001
AVE_FINISH
1002
{
1070
     0
1005
66AD
1002
}
  0
VERTEX
  8
12PIA05-MAIN
  5
693C
 10
62.74
 20
50.484
 30
28.116
 70
   192
  0
VERTEX
  8
12PIA05-MAIN
  5
693D
 10
61.718
 20
50.484
 30
28.116
 70
   192
  0
VERTEX
  8
12PIA05-MAIN
  5
693E
 10
61.718
 20
50.484
 30
25.982
 70
   192
  0
VERTEX
  8
12PIA05-MAIN
  5
693F
 10
62.74
 20
50.484
 30
25.982
 70
   192
  0
VERTEX
  8
12PIA05-MAIN
  5
6940
 10
44.402
 20
53.472
 30
25.982
 70
   192
  0
VERTEX
  8
12PIA05-MAIN
  5
6941
 10
50.788
 20
53.472
 30
25.982
 70
   192
  0
VERTEX
  8
12PIA05-MAIN
  5
6942
 10
44.402
 20
53.472
 30
37.933
 70
   192
  0
VERTEX
  8
12PIA05-MAIN
  5
6943
 10
50.788
 20
53.472
 30
37.933
 70
   192
  0
VERTEX
  8
12PIA05-MAIN
  5
6944
 10
40.63
 20
53.114
 30
25.981
 70
   192
  0
VERTEX
  8
12PIA05-MAIN
  5
6945
 10
40.63
 20
53.114
 30
37.933
 70
   192
  0
VERTEX
  8
12PIA05-MAIN
  5
6946
 10
37.417
 20
52.243
 30
25.981
 70
   192
  0
VERTEX
  8
12PIA05-MAIN
  5
6947
 10
37.417
 20
52.243
 30
37.933
 70
   192
  0
VERTEX
  8
12PIA05-MAIN
  5
6948
 10
34.172
 20
50.699
 30
25.982
 70
   192
  0
VERTEX
  8
12PIA05-MAIN
  5
6949
 10
34.172
 20
50.699
 30
37.934
 70
   192
  0
VERTEX
  8
12PIA05-MAIN
  5
694A
 10
31.554
 20
48.827
 30
25.982
 70
   192
  0
VERTEX
  8
12PIA05-MAIN
  5
694B
 10
31.554
 20
48.827
 30
37.934
 70
   192
  0
VERTEX
  8
12PIA05-MAIN
  5
694C
 10
29.249
 20
46.435
 30
25.982
 70
   192
  0
VERTEX
  8
12PIA05-MAIN
  5
694D
 10
29.249
 20
46.435
 30
37.934
 70
   192
  0
VERTEX
  8
12PIA05-MAIN
  5
694E
 10
27.323
 20
43.396
 30
25.982
 70
   192
  0
VERTEX
  8
12PIA05-MAIN
  5
694F
 10
27.323
 20
43.396
 30
37.934
 70
   192
  0
VERTEX
  8
12PIA05-MAIN
  5
6950
 10
26.074
 20
39.886
 30
25.982
 70
   192
  0
VERTEX
  8
12PIA05-MAIN
  5
6951
 10
26.074
 20
39.886
 30
37.934
 70
   192
  0
VERTEX
  8
12PIA05-MAIN
  5
6952
 10
24.635
 20
36.702
 30
25.982
 70
   192
  0
VERTEX
  8
12PIA05-MAIN
  5
6953
 10
24.635
 20
36.702
 30
37.933
 70
   192
  0
VERTEX
  8
12PIA05-MAIN
  5
6954
 10
22.489
 20
34.192
 30
25.982
 70
   192
  0
VERTEX
  8
12PIA05-MAIN
  5
6955
 10
22.489
 20
34.192
 30
37.934
 70
   192
  0
VERTEX
  8
12PIA05-MAIN
  5
6956
 10
19.794
 20
32.168
 30
25.982
 70
   192
  0
VERTEX
  8
12PIA05-MAIN
  5
6957
 10
19.794
 20
32.168
 30
37.933
 70
   192
  0
VERTEX
  8
12PIA05-MAIN
  5
6958
 10
16.709
 20
30.773
 30
25.982
 70
   192
  0
VERTEX
  8
12PIA05-MAIN
  5
6959
 10
16.709
 20
30.773
 30
37.934
 70
   192
  0
VERTEX
  8
12PIA05-MAIN
  5
695A
 10
12.948
 20
30.107
 30
25.982
 70
   192
  0
VERTEX
  8
12PIA05-MAIN
  5
695B
 10
12.948
 20
30.107
 30
37.933
 70
   192
  0
VERTEX
  8
12PIA05-MAIN
  5
695C
 10
8.944
 20
29.809
 30
25.981
 70
   192
  0
VERTEX
  8
12PIA05-MAIN
  5
695D
 10
8.944
 20
29.809
 30
37.933
 70
   192
  0
VERTEX
  8
12PIA05-MAIN
  5
695E
 10
4.976
 20
28.987
 30
25.981
 70
   192
  0
VERTEX
  8
12PIA05-MAIN
  5
695F
 10
4.976
 20
28.987
 30
37.934
 70
   192
  0
VERTEX
  8
12PIA05-MAIN
  5
6960
 10
1.795
 20
27.602
 30
25.981
 70
   192
  0
VERTEX
  8
12PIA05-MAIN
  5
6961
 10
1.795
 20
27.602
 30
37.934
 70
   192
  0
VERTEX
  8
12PIA05-MAIN
  5
6962
 10
-1.267
 20
25.499
 30
25.981
 70
   192
  0
VERTEX
  8
12PIA05-MAIN
  5
6963
 10
-1.267
 20
25.499
 30
37.934
 70
   192
  0
VERTEX
  8
12PIA05-MAIN
  5
6964
 10
3.23
 20
-1.784
 30
25.982
 70
   192
  0
VERTEX
  8
12PIA05-MAIN
  5
6965
 10
0.0
 20
0.0
 30
25.981
 70
   192
  0
VERTEX
  8
12PIA05-MAIN
  5
6966
 10
3.23
 20
-1.784
 30
37.933
 70
   192
  0
VERTEX
  8
12PIA05-MAIN
  5
6967
 10
0.0
 20
0.0
 30
37.933
 70
   192
  0
VERTEX
  8
12PIA05-MAIN
  5
6968
 10
6.882
 20
-2.976
 30
25.982
 70
   192
  0
VERTEX
  8
12PIA05-MAIN
  5
6969
 10
6.882
 20
-2.976
 30
37.933
 70
   192
  0
VERTEX
  8
12PIA05-MAIN
  5
696A
 10
11.346
 20
-3.528
 30
25.981
 70
   192
  0
VERTEX
  8
12PIA05-MAIN
  5
696B
 10
11.346
 20
-3.528
 30
37.934
 70
   192
  0
VERTEX
  8
12PIA05-MAIN
  5
696C
 10
50.788
 20
-3.528
 30
25.982
 70
   192
  0
VERTEX
  8
12PIA05-MAIN
  5
696D
 10
50.788
 20
-3.528
 30
37.934
 70
   192
  0
VERTEX
  8
12PIA05-MAIN
  5
696E
 10
0.0
 20
0.0
 30
0.0
 70
   128
 71
     1
 72
     2
 73
    -3
  0
VERTEX
  8
12PIA05-MAIN
  5
696F
 10
0.0
 20
0.0
 30
0.0
 70
   128
 71
     3
 72
     4
 73
    -1
  0
VERTEX
  8
12PIA05-MAIN
  5
6970
 10
0.0
 20
0.0
 30
0.0
 70
   128
 71
     5
 72
    -6
 73
     7
  0
VERTEX
  8
12PIA05-MAIN
  5
6971
 10
0.0
 20
0.0
 30
0.0
 70
   128
 71
     8
 72
    -7
 73
     6
  0
VERTEX
  8
12PIA05-MAIN
  5
6972
 10
0.0
 20
0.0
 30
0.0
 70
   128
 71
    -9
 72
     7
 73
    10
  0
VERTEX
  8
12PIA05-MAIN
  5
6973
 10
0.0
 20
0.0
 30
0.0
 70
   128
 71
     5
 72
    -7
 73
     9
  0
VERTEX
  8
12PIA05-MAIN
  5
6974
 10
0.0
 20
0.0
 30
0.0
 70
   128
 71
    11
 72
    -9
 73
    12
  0
VERTEX
  8
12PIA05-MAIN
  5
6975
 10
0.0
 20
0.0
 30
0.0
 70
   128
 71
    10
 72
   -12
 73
     9
  0
VERTEX
  8
12PIA05-MAIN
  5
6976
 10
0.0
 20
0.0
 30
0.0
 70
   128
 71
   -13
 72
    12
 73
    14
  0
VERTEX
  8
12PIA05-MAIN
  5
6977
 10
0.0
 20
0.0
 30
0.0
 70
   128
 71
    11
 72
   -12
 73
    13
  0
VERTEX
  8
12PIA05-MAIN
  5
6978
 10
0.0
 20
0.0
 30
0.0
 70
   128
 71
    15
 72
   -13
 73
    16
  0
VERTEX
  8
12PIA05-MAIN
  5
6979
 10
0.0
 20
0.0
 30
0.0
 70
   128
 71
    14
 72
   -16
 73
    13
  0
VERTEX
  8
12PIA05-MAIN
  5
697A
 10
0.0
 20
0.0
 30
0.0
 70
   128
 71
    17
 72
   -15
 73
    18
  0
VERTEX
  8
12PIA05-MAIN
  5
697B
 10
0.0
 20
0.0
 30
0.0
 70
   128
 71
    16
 72
   -18
 73
    15
  0
VERTEX
  8
12PIA05-MAIN
  5
697C
 10
0.0
 20
0.0
 30
0.0
 70
   128
 71
    19
 72
   -17
 73
    20
  0
VERTEX
  8
12PIA05-MAIN
  5
697D
 10
0.0
 20
0.0
 30
0.0
 70
   128
 71
    18
 72
   -20
 73
    17
  0
VERTEX
  8
12PIA05-MAIN
  5
697E
 10
0.0
 20
0.0
 30
0.0
 70
   128
 71
    21
 72
   -19
 73
    22
  0
VERTEX
  8
12PIA05-MAIN
  5
697F
 10
0.0
 20
0.0
 30
0.0
 70
   128
 71
    20
 72
   -22
 73
    19
  0
VERTEX
  8
12PIA05-MAIN
  5
6980
 10
0.0
 20
0.0
 30
0.0
 70
   128
 71
   -23
 72
    22
 73
    24
  0
VERTEX
  8
12PIA05-MAIN
  5
6981
 10
0.0
 20
0.0
 30
0.0
 70
   128
 71
    21
 72
   -22
 73
    23
  0
VERTEX
  8
12PIA05-MAIN
  5
6982
 10
0.0
 20
0.0
 30
0.0
 70
   128
 71
   -25
 72
    24
 73
    26
  0
VERTEX
  8
12PIA05-MAIN
  5
6983
 10
0.0
 20
0.0
 30
0.0
 70
   128
 71
    23
 72
   -24
 73
    25
  0
VERTEX
  8
12PIA05-MAIN
  5
6984
 10
0.0
 20
0.0
 30
0.0
 70
   128
 71
   -27
 72
    26
 73
    28
  0
VERTEX
  8
12PIA05-MAIN
  5
6985
 10
0.0
 20
0.0
 30
0.0
 70
   128
 71
    25
 72
   -26
 73
    27
  0
VERTEX
  8
12PIA05-MAIN
  5
6986
 10
0.0
 20
0.0
 30
0.0
 70
   128
 71
   -29
 72
    28
 73
    30
  0
VERTEX
  8
12PIA05-MAIN
  5
6987
 10
0.0
 20
0.0
 30
0.0
 70
   128
 71
    27
 72
   -28
 73
    29
  0
VERTEX
  8
12PIA05-MAIN
  5
6988
 10
0.0
 20
0.0
 30
0.0
 70
   128
 71
   -31
 72
    30
 73
    32
  0
VERTEX
  8
12PIA05-MAIN
  5
6989
 10
0.0
 20
0.0
 30
0.0
 70
   128
 71
    29
 72
   -30
 73
    31
  0
VERTEX
  8
12PIA05-MAIN
  5
698A
 10
0.0
 20
0.0
 30
0.0
 70
   128
 71
   -33
 72
    32
 73
    34
  0
VERTEX
  8
12PIA05-MAIN
  5
698B
 10
0.0
 20
0.0
 30
0.0
 70
   128
 71
    31
 72
   -32
 73
    33
  0
VERTEX
  8
12PIA05-MAIN
  5
698C
 10
0.0
 20
0.0
 30
0.0
 70
   128
 71
    35
 72
   -33
 73
    36
  0
VERTEX
  8
12PIA05-MAIN
  5
698D
 10
0.0
 20
0.0
 30
0.0
 70
   128
 71
    34
 72
   -36
 73
    33
  0
VERTEX
  8
12PIA05-MAIN
  5
698E
 10
0.0
 20
0.0
 30
0.0
 70
   128
 71
    37
 72
   -35
 73
    38
  0
VERTEX
  8
12PIA05-MAIN
  5
698F
 10
0.0
 20
0.0
 30
0.0
 70
   128
 71
    36
 72
   -38
 73
    35
  0
VERTEX
  8
12PIA05-MAIN
  5
6990
 10
0.0
 20
0.0
 30
0.0
 70
   128
 71
    39
 72
   -37
 73
    40
  0
VERTEX
  8
12PIA05-MAIN
  5
6991
 10
0.0
 20
0.0
 30
0.0
 70
   128
 71
    38
 72
   -40
 73
    37
  0
VERTEX
  8
12PIA05-MAIN
  5
6992
 10
0.0
 20
0.0
 30
0.0
 70
   128
 71
    41
 72
   -42
 73
    43
  0
VERTEX
  8
12PIA05-MAIN
  5
6993
 10
0.0
 20
0.0
 30
0.0
 70
   128
 71
    44
 72
   -43
 73
    42
  0
VERTEX
  8
12PIA05-MAIN
  5
6994
 10
0.0
 20
0.0
 30
0.0
 70
   128
 71
    45
 72
   -41
 73
    46
  0
VERTEX
  8
12PIA05-MAIN
  5
6995
 10
0.0
 20
0.0
 30
0.0
 70
   128
 71
    43
 72
   -46
 73
    41
  0
VERTEX
  8
12PIA05-MAIN
  5
6996
 10
0.0
 20
0.0
 30
0.0
 70
   128
 71
    47
 72
   -45
 73
    48
  0
VERTEX
  8
12PIA05-MAIN
  5
6997
 10
0.0
 20
0.0
 30
0.0
 70
   128
 71
    46
 72
   -48
 73
    45
  0
VERTEX
  8
12PIA05-MAIN
  5
6998
 10
0.0
 20
0.0
 30
0.0
 70
   128
 71
    49
 72
   -47
 73
    50
  0
VERTEX
  8
12PIA05-MAIN
  5
6999
 10
0.0
 20
0.0
 30
0.0
 70
   128
 71
    48
 72
   -50
 73
    47
  0
SEQEND
  8
12PIA05-MAIN
  5
699A
  0
POLYLINE
  8
12PIA05-MAIN
  5
699B
 66
     1
 10
0.0
 20
0.0
 30
0.0
 70
    64
 71
   128
 72
    92
1001
AVE_ENTITY_MATERIAL
1002
{
1000

1002
{
1071
        0
1070
     0
1070
     0
1002
{
1070
     0
1070
     0
1070
     0
1040
0.0
1002
}
1070
     0
1070
     0
1002
{
1002
}
1002
}
1002
{
1002
}
1002
{
1002
}
1011
0.0
1021
0.0
1031
0.0
1011
1.0
1021
0.0
1031
0.0
1011
0.0
1021
1.0
1031
0.0
1011
0.0
1021
0.0
1031
1.0
1002
}
1001
AVE_FINISH
1002
{
1070
     0
1005
670E
1002
}
  0
VERTEX
  8
12PIA05-MAIN
  5
699C
 10
60.766
 20
-3.528
 30
31.741
 70
   192
  0
VERTEX
  8
12PIA05-MAIN
  5
699D
 10
61.668
 20
-3.528
 30
31.116
 70
   192
  0
VERTEX
  8
12PIA05-MAIN
  5
699E
 10
60.766
 20
-0.54
 30
31.741
 70
   192
  0
VERTEX
  8
12PIA05-MAIN
  5
699F
 10
61.668
 20
-0.54
 30
31.116
 70
   192
  0
VERTEX
  8
12PIA05-MAIN
  5
69A0
 10
55.474
 20
-3.528
 30
33.244
 70
   192
  0
VERTEX
  8
12PIA05-MAIN
  5
69A1
 10
56.272
 20
-3.528
 30
32.44
 70
   192
  0
VERTEX
  8
12PIA05-MAIN
  5
69A2
 10
55.474
 20
-0.54
 30
33.244
 70
   192
  0
VERTEX
  8
12PIA05-MAIN
  5
69A3
 10
56.272
 20
-0.54
 30
32.44
 70
   192
  0
VERTEX
  8
12PIA05-MAIN
  5
69A4
 10
54.772
 20
-3.528
 30
35.558
 70
   192
  0
VERTEX
  8
12PIA05-MAIN
  5
69A5
 10
54.953
 20
-3.528
 30
34.326
 70
   192
  0
VERTEX
  8
12PIA05-MAIN
  5
69A6
 10
54.772
 20
-0.54
 30
35.558
 70
   192
  0
VERTEX
  8
12PIA05-MAIN
  5
69A7
 10
54.953
 20
-0.54
 30
34.326
 70
   192
  0
VERTEX
  8
12PIA05-MAIN
  5
69A8
 10
54.772
 20
-3.528
 30
37.934
 70
   192
  0
VERTEX
  8
12PIA05-MAIN
  5
69A9
 10
54.772
 20
-0.54
 30
37.934
 70
   192
  0
VERTEX
  8
12PIA05-MAIN
  5
69AA
 10
62.754
 20
-3.528
 30
28.876
 70
   192
  0
VERTEX
  8
12PIA05-MAIN
  5
69AB
 10
62.74
 20
-3.528
 30
25.982
 70
   192
  0
VERTEX
  8
12PIA05-MAIN
  5
69AC
 10
62.754
 20
-0.54
 30
28.876
 70
   192
  0
VERTEX
  8
12PIA05-MAIN
  5
69AD
 10
62.74
 20
-0.54
 30
25.982
 70
   192
  0
VERTEX
  8
12PIA05-MAIN
  5
69AE
 10
62.412
 20
-3.528
 30
30.14
 70
   192
  0
VERTEX
  8
12PIA05-MAIN
  5
69AF
 10
62.412
 20
-0.54
 30
30.14
 70
   192
  0
VERTEX
  8
12PIA05-MAIN
  5
69B0
 10
60.229
 20
-1.128
 30
25.332
 70
   192
  0
VERTEX
  8
12PIA05-MAIN
  5
69B1
 10
60.457
 20
-1.128
 30
25.982
 70
   192
  0
VERTEX
  8
12PIA05-MAIN
  5
69B2
 10
60.229
 20
-3.628
 30
25.332
 70
   192
  0
VERTEX
  8
12PIA05-MAIN
  5
69B3
 10
60.457
 20
-3.628
 30
25.982
 70
   192
  0
VERTEX
  8
12PIA05-MAIN
  5
69B4
 10
59.826
 20
-1.128
 30
24.996
 70
   192
  0
VERTEX
  8
12PIA05-MAIN
  5
69B5
 10
59.826
 20
-3.628
 30
24.996
 70
   192
  0
VERTEX
  8
12PIA05-MAIN
  5
69B6
 10
57.335
 20
-1.128
 30
24.108
 70
   192
  0
VERTEX
  8
12PIA05-MAIN
  5
69B7
 10
57.942
 20
-1.128
 30
24.463
 70
   192
  0
VERTEX
  8
12PIA05-MAIN
  5
69B8
 10
57.335
 20
-3.628
 30
24.108
 70
   192
  0
VERTEX
  8
12PIA05-MAIN
  5
69B9
 10
57.942
 20
-3.628
 30
24.463
 70
   192
  0
VERTEX
  8
12PIA05-MAIN
  5
69BA
 10
56.945
 20
-1.128
 30
23.636
 70
   192
  0
VERTEX
  8
12PIA05-MAIN
  5
69BB
 10
56.945
 20
-3.628
 30
23.636
 70
   192
  0
VERTEX
  8
12PIA05-MAIN
  5
69BC
 10
56.549
 20
-1.128
 30
22.645
 70
   192
  0
VERTEX
  8
12PIA05-MAIN
  5
69BD
 10
56.549
 20
-3.628
 30
22.645
 70
   192
  0
VERTEX
  8
12PIA05-MAIN
  5
69BE
 10
55.925
 20
-1.128
 30
22.25
 70
   192
  0
VERTEX
  8
12PIA05-MAIN
  5
69BF
 10
55.925
 20
-3.628
 30
22.25
 70
   192
  0
VERTEX
  8
12PIA05-MAIN
  5
69C0
 10
55.004
 20
-1.128
 30
21.172
 70
   192
  0
VERTEX
  8
12PIA05-MAIN
  5
69C1
 10
55.004
 20
-1.128
 30
22.186
 70
   192
  0
VERTEX
  8
12PIA05-MAIN
  5
69C2
 10
55.004
 20
-3.628
 30
21.172
 70
   192
  0
VERTEX
  8
12PIA05-MAIN
  5
69C3
 10
55.004
 20
-3.628
 30
22.186
 70
   192
  0
VERTEX
  8
12PIA05-MAIN
  5
69C4
 10
50.788
 20
-3.528
 30
37.934
 70
   192
  0
VERTEX
  8
12PIA05-MAIN
  5
69C5
 10
50.788
 20
-3.528
 30
25.981
 70
   192
  0
VERTEX
  8
12PIA05-MAIN
  5
69C6
 10
50.788
 20
-0.54
 30
25.982
 70
   192
  0
VERTEX
  8
12PIA05-MAIN
  5
69C7
 10
50.788
 20
-0.54
 30
37.934
 70
   192
  0
VERTEX
  8
12PIA05-MAIN
  5
69C8
 10
45.014
 20
-1.128
 30
24.996
 70
   192
  0
VERTEX
  8
12PIA05-MAIN
  5
69C9
 10
44.611
 20
-1.128
 30
25.332
 70
   192
  0
VERTEX
  8
12PIA05-MAIN
  5
69CA
 10
44.611
 20
-3.628
 30
25.332
 70
   192
  0
VERTEX
  8
12PIA05-MAIN
  5
69CB
 10
45.014
 20
-3.628
 30
24.996
 70
   192
  0
VERTEX
  8
12PIA05-MAIN
  5
69CC
 10
44.383
 20
-1.128
 30
25.982
 70
   192
  0
VERTEX
  8
12PIA05-MAIN
  5
69CD
 10
44.383
 20
-3.628
 30
25.982
 70
   192
  0
VERTEX
  8
12PIA05-MAIN
  5
69CE
 10
48.916
 20
-1.128
 30
22.25
 70
   192
  0
VERTEX
  8
12PIA05-MAIN
  5
69CF
 10
48.292
 20
-1.128
 30
22.645
 70
   192
  0
VERTEX
  8
12PIA05-MAIN
  5
69D0
 10
48.292
 20
-3.628
 30
22.645
 70
   192
  0
VERTEX
  8
12PIA05-MAIN
  5
69D1
 10
48.916
 20
-3.628
 30
22.25
 70
   192
  0
VERTEX
  8
12PIA05-MAIN
  5
69D2
 10
47.896
 20
-1.128
 30
23.636
 70
   192
  0
VERTEX
  8
12PIA05-MAIN
  5
69D3
 10
47.896
 20
-3.628
 30
23.636
 70
   192
  0
VERTEX
  8
12PIA05-MAIN
  5
69D4
 10
47.504
 20
-1.128
 30
24.108
 70
   192
  0
VERTEX
  8
12PIA05-MAIN
  5
69D5
 10
47.504
 20
-3.628
 30
24.108
 70
   192
  0
VERTEX
  8
12PIA05-MAIN
  5
69D6
 10
46.898
 20
-1.128
 30
24.463
 70
   192
  0
VERTEX
  8
12PIA05-MAIN
  5
69D7
 10
46.898
 20
-3.628
 30
24.463
 70
   192
  0
VERTEX
  8
12PIA05-MAIN
  5
69D8
 10
49.835
 20
-1.128
 30
21.172
 70
   192
  0
VERTEX
  8
12PIA05-MAIN
  5
69D9
 10
49.835
 20
-1.128
 30
22.186
 70
   192
  0
VERTEX
  8
12PIA05-MAIN
  5
69DA
 10
49.835
 20
-3.628
 30
22.186
 70
   192
  0
VERTEX
  8
12PIA05-MAIN
  5
69DB
 10
49.835
 20
-3.628
 30
21.172
 70
   192
  0
VERTEX
  8
12PIA05-MAIN
  5
69DC
 10
50.788
 20
50.484
 30
37.934
 70
   192
  0
VERTEX
  8
12PIA05-MAIN
  5
69DD
 10
50.788
 20
50.484
 30
25.981
 70
   192
  0
VERTEX
  8
12PIA05-MAIN
  5
69DE
 10
50.788
 20
53.472
 30
25.982
 70
   192
  0
VERTEX
  8
12PIA05-MAIN
  5
69DF
 10
50.788
 20
53.472
 30
37.934
 70
   192
  0
VERTEX
  8
12PIA05-MAIN
  5
69E0
 10
62.754
 20
50.484
 30
28.876
 70
   192
  0
VERTEX
  8
12PIA05-MAIN
  5
69E1
 10
62.74
 20
50.484
 30
25.982
 70
   192
  0
VERTEX
  8
12PIA05-MAIN
  5
69E2
 10
62.754
 20
53.472
 30
28.876
 70
   192
  0
VERTEX
  8
12PIA05-MAIN
  5
69E3
 10
62.74
 20
53.472
 30
25.982
 70
   192
  0
VERTEX
  8
12PIA05-MAIN
  5
69E4
 10
62.412
 20
50.484
 30
30.14
 70
   192
  0
VERTEX
  8
12PIA05-MAIN
  5
69E5
 10
62.412
 20
53.472
 30
30.14
 70
   192
  0
VERTEX
  8
12PIA05-MAIN
  5
69E6
 10
61.668
 20
50.484
 30
31.116
 70
   192
  0
VERTEX
  8
12PIA05-MAIN
  5
69E7
 10
61.668
 20
53.472
 30
31.116
 70
   192
  0
VERTEX
  8
12PIA05-MAIN
  5
69E8
 10
60.766
 20
50.484
 30
31.741
 70
   192
  0
VERTEX
  8
12PIA05-MAIN
  5
69E9
 10
60.766
 20
53.472
 30
31.741
 70
   192
  0
VERTEX
  8
12PIA05-MAIN
  5
69EA
 10
55.474
 20
50.484
 30
33.244
 70
   192
  0
VERTEX
  8
12PIA05-MAIN
  5
69EB
 10
56.272
 20
50.484
 30
32.44
 70
   192
  0
VERTEX
  8
12PIA05-MAIN
  5
69EC
 10
55.474
 20
53.472
 30
33.244
 70
   192
  0
VERTEX
  8
12PIA05-MAIN
  5
69ED
 10
56.272
 20
53.472
 30
32.44
 70
   192
  0
VERTEX
  8
12PIA05-MAIN
  5
69EE
 10
54.953
 20
50.484
 30
34.326
 70
   192
  0
VERTEX
  8
12PIA05-MAIN
  5
69EF
 10
54.953
 20
53.472
 30
34.326
 70
   192
  0
VERTEX
  8
12PIA05-MAIN
  5
69F0
 10
54.772
 20
50.484
 30
35.558
 70
   192
  0
VERTEX
  8
12PIA05-MAIN
  5
69F1
 10
54.772
 20
53.472
 30
35.558
 70
   192
  0
VERTEX
  8
12PIA05-MAIN
  5
69F2
 10
54.772
 20
50.484
 30
37.934
 70
   192
  0
VERTEX
  8
12PIA05-MAIN
  5
69F3
 10
54.772
 20
53.472
 30
37.934
 70
   192
  0
VERTEX
  8
12PIA05-MAIN
  5
69F4
 10
60.229
 20
52.884
 30
25.332
 70
   192
  0
VERTEX
  8
12PIA05-MAIN
  5
69F5
 10
60.457
 20
52.884
 30
25.982
 70
   192
  0
VERTEX
  8
12PIA05-MAIN
  5
69F6
 10
60.229
 20
50.384
 30
25.332
 70
   192
  0
VERTEX
  8
12PIA05-MAIN
  5
69F7
 10
60.457
 20
50.384
 30
25.982
 70
   192
  0
VERTEX
  8
12PIA05-MAIN
  5
69F8
 10
59.826
 20
52.884
 30
24.996
 70
   192
  0
VERTEX
  8
12PIA05-MAIN
  5
69F9
 10
59.826
 20
50.384
 30
24.996
 70
   192
  0
VERTEX
  8
12PIA05-MAIN
  5
69FA
 10
57.335
 20
52.884
 30
24.108
 70
   192
  0
VERTEX
  8
12PIA05-MAIN
  5
69FB
 10
57.942
 20
52.884
 30
24.463
 70
   192
  0
VERTEX
  8
12PIA05-MAIN
  5
69FC
 10
57.335
 20
50.384
 30
24.108
 70
   192
  0
VERTEX
  8
12PIA05-MAIN
  5
69FD
 10
57.942
 20
50.384
 30
24.463
 70
   192
  0
VERTEX
  8
12PIA05-MAIN
  5
69FE
 10
56.945
 20
52.884
 30
23.636
 70
   192
  0
VERTEX
  8
12PIA05-MAIN
  5
69FF
 10
56.945
 20
50.384
 30
23.636
 70
   192
  0
VERTEX
  8
12PIA05-MAIN
  5
6A00
 10
56.549
 20
52.884
 30
22.645
 70
   192
  0
VERTEX
  8
12PIA05-MAIN
  5
6A01
 10
56.549
 20
50.384
 30
22.645
 70
   192
  0
VERTEX
  8
12PIA05-MAIN
  5
6A02
 10
55.925
 20
52.884
 30
22.25
 70
   192
  0
VERTEX
  8
12PIA05-MAIN
  5
6A03
 10
55.925
 20
50.384
 30
22.25
 70
   192
  0
VERTEX
  8
12PIA05-MAIN
  5
6A04
 10
55.004
 20
52.884
 30
21.172
 70
   192
  0
VERTEX
  8
12PIA05-MAIN
  5
6A05
 10
55.004
 20
52.884
 30
22.186
 70
   192
  0
VERTEX
  8
12PIA05-MAIN
  5
6A06
 10
55.004
 20
50.384
 30
21.172
 70
   192
  0
VERTEX
  8
12PIA05-MAIN
  5
6A07
 10
55.004
 20
50.384
 30
22.186
 70
   192
  0
VERTEX
  8
12PIA05-MAIN
  5
6A08
 10
49.835
 20
52.884
 30
21.172
 70
   192
  0
VERTEX
  8
12PIA05-MAIN
  5
6A09
 10
49.835
 20
52.884
 30
22.186
 70
   192
  0
VERTEX
  8
12PIA05-MAIN
  5
6A0A
 10
49.835
 20
50.384
 30
22.186
 70
   192
  0
VERTEX
  8
12PIA05-MAIN
  5
6A0B
 10
49.835
 20
50.384
 30
21.172
 70
   192
  0
VERTEX
  8
12PIA05-MAIN
  5
6A0C
 10
48.916
 20
52.884
 30
22.25
 70
   192
  0
VERTEX
  8
12PIA05-MAIN
  5
6A0D
 10
48.292
 20
52.884
 30
22.645
 70
   192
  0
VERTEX
  8
12PIA05-MAIN
  5
6A0E
 10
48.292
 20
50.384
 30
22.645
 70
   192
  0
VERTEX
  8
12PIA05-MAIN
  5
6A0F
 10
48.916
 20
50.384
 30
22.25
 70
   192
  0
VERTEX
  8
12PIA05-MAIN
  5
6A10
 10
47.896
 20
52.884
 30
23.636
 70
   192
  0
VERTEX
  8
12PIA05-MAIN
  5
6A11
 10
47.896
 20
50.384
 30
23.636
 70
   192
  0
VERTEX
  8
12PIA05-MAIN
  5
6A12
 10
47.504
 20
52.884
 30
24.108
 70
   192
  0
VERTEX
  8
12PIA05-MAIN
  5
6A13
 10
47.504
 20
50.384
 30
24.108
 70
   192
  0
VERTEX
  8
12PIA05-MAIN
  5
6A14
 10
46.898
 20
52.884
 30
24.463
 70
   192
  0
VERTEX
  8
12PIA05-MAIN
  5
6A15
 10
46.898
 20
50.384
 30
24.463
 70
   192
  0
VERTEX
  8
12PIA05-MAIN
  5
6A16
 10
45.014
 20
52.884
 30
24.996
 70
   192
  0
VERTEX
  8
12PIA05-MAIN
  5
6A17
 10
44.611
 20
52.884
 30
25.332
 70
   192
  0
VERTEX
  8
12PIA05-MAIN
  5
6A18
 10
44.611
 20
50.384
 30
25.332
 70
   192
  0
VERTEX
  8
12PIA05-MAIN
  5
6A19
 10
45.014
 20
50.384
 30
24.996
 70
   192
  0
VERTEX
  8
12PIA05-MAIN
  5
6A1A
 10
44.383
 20
52.884
 30
25.982
 70
   192
  0
VERTEX
  8
12PIA05-MAIN
  5
6A1B
 10
44.383
 20
50.384
 30
25.982
 70
   192
  0
VERTEX
  8
12PIA05-MAIN
  5
6A1C
 10
0.0
 20
0.0
 30
0.0
 70
   128
 71
     1
 72
    -2
 73
     3
  0
VERTEX
  8
12PIA05-MAIN
  5
6A1D
 10
0.0
 20
0.0
 30
0.0
 70
   128
 71
     4
 72
    -3
 73
     2
  0
VERTEX
  8
12PIA05-MAIN
  5
6A1E
 10
0.0
 20
0.0
 30
0.0
 70
   128
 71
     5
 72
    -6
 73
     7
  0
VERTEX
  8
12PIA05-MAIN
  5
6A1F
 10
0.0
 20
0.0
 30
0.0
 70
   128
 71
     8
 72
    -7
 73
     6
  0
VERTEX
  8
12PIA05-MAIN
  5
6A20
 10
0.0
 20
0.0
 30
0.0
 70
   128
 71
     9
 72
   -10
 73
    11
  0
VERTEX
  8
12PIA05-MAIN
  5
6A21
 10
0.0
 20
0.0
 30
0.0
 70
   128
 71
    12
 72
   -11
 73
    10
  0
VERTEX
  8
12PIA05-MAIN
  5
6A22
 10
0.0
 20
0.0
 30
0.0
 70
   128
 71
    13
 72
    -9
 73
    14
  0
VERTEX
  8
12PIA05-MAIN
  5
6A23
 10
0.0
 20
0.0
 30
0.0
 70
   128
 71
    11
 72
   -14
 73
     9
  0
VERTEX
  8
12PIA05-MAIN
  5
6A24
 10
0.0
 20
0.0
 30
0.0
 70
   128
 71
    10
 72
    -5
 73
    12
  0
VERTEX
  8
12PIA05-MAIN
  5
6A25
 10
0.0
 20
0.0
 30
0.0
 70
   128
 71
     7
 72
   -12
 73
     5
  0
VERTEX
  8
12PIA05-MAIN
  5
6A26
 10
0.0
 20
0.0
 30
0.0
 70
   128
 71
    15
 72
   -16
 73
    17
  0
VERTEX
  8
12PIA05-MAIN
  5
6A27
 10
0.0
 20
0.0
 30
0.0
 70
   128
 71
    18
 72
   -17
 73
    16
  0
VERTEX
  8
12PIA05-MAIN
  5
6A28
 10
0.0
 20
0.0
 30
0.0
 70
   128
 71
    19
 72
   -15
 73
    20
  0
VERTEX
  8
12PIA05-MAIN
  5
6A29
 10
0.0
 20
0.0
 30
0.0
 70
   128
 71
    17
 72
   -20
 73
    15
  0
VERTEX
  8
12PIA05-MAIN
  5
6A2A
 10
0.0
 20
0.0
 30
0.0
 70
   128
 71
    21
 72
   -22
 73
    23
  0
VERTEX
  8
12PIA05-MAIN
  5
6A2B
 10
0.0
 20
0.0
 30
0.0
 70
   128
 71
    24
 72
   -23
 73
    22
  0
VERTEX
  8
12PIA05-MAIN
  5
6A2C
 10
0.0
 20
0.0
 30
0.0
 70
   128
 71
    25
 72
   -21
 73
    26
  0
VERTEX
  8
12PIA05-MAIN
  5
6A2D
 10
0.0
 20
0.0
 30
0.0
 70
   128
 71
    23
 72
   -26
 73
    21
  0
VERTEX
  8
12PIA05-MAIN
  5
6A2E
 10
0.0
 20
0.0
 30
0.0
 70
   128
 71
    27
 72
   -28
 73
    29
  0
VERTEX
  8
12PIA05-MAIN
  5
6A2F
 10
0.0
 20
0.0
 30
0.0
 70
   128
 71
    30
 72
   -29
 73
    28
  0
VERTEX
  8
12PIA05-MAIN
  5
6A30
 10
0.0
 20
0.0
 30
0.0
 70
   128
 71
    31
 72
   -27
 73
    32
  0
VERTEX
  8
12PIA05-MAIN
  5
6A31
 10
0.0
 20
0.0
 30
0.0
 70
   128
 71
    29
 72
   -32
 73
    27
  0
VERTEX
  8
12PIA05-MAIN
  5
6A32
 10
0.0
 20
0.0
 30
0.0
 70
   128
 71
    33
 72
   -31
 73
    34
  0
VERTEX
  8
12PIA05-MAIN
  5
6A33
 10
0.0
 20
0.0
 30
0.0
 70
   128
 71
    32
 72
   -34
 73
    31
  0
VERTEX
  8
12PIA05-MAIN
  5
6A34
 10
0.0
 20
0.0
 30
0.0
 70
   128
 71
    35
 72
   -33
 73
    36
  0
VERTEX
  8
12PIA05-MAIN
  5
6A35
 10
0.0
 20
0.0
 30
0.0
 70
   128
 71
    34
 72
   -36
 73
    33
  0
VERTEX
  8
12PIA05-MAIN
  5
6A36
 10
0.0
 20
0.0
 30
0.0
 70
   128
 71
    37
 72
   -38
 73
    39
  0
VERTEX
  8
12PIA05-MAIN
  5
6A37
 10
0.0
 20
0.0
 30
0.0
 70
   128
 71
    40
 72
   -39
 73
    38
  0
VERTEX
  8
12PIA05-MAIN
  5
6A38
 10
0.0
 20
0.0
 30
0.0
 70
   128
 71
    41
 72
    42
 73
   -43
  0
VERTEX
  8
12PIA05-MAIN
  5
6A39
 10
0.0
 20
0.0
 30
0.0
 70
   128
 71
    43
 72
    44
 73
   -41
  0
VERTEX
  8
12PIA05-MAIN
  5
6A3A
 10
0.0
 20
0.0
 30
0.0
 70
   128
 71
     2
 72
   -19
 73
     4
  0
VERTEX
  8
12PIA05-MAIN
  5
6A3B
 10
0.0
 20
0.0
 30
0.0
 70
   128
 71
    20
 72
    -4
 73
    19
  0
VERTEX
  8
12PIA05-MAIN
  5
6A3C
 10
0.0
 20
0.0
 30
0.0
 70
   128
 71
    45
 72
    46
 73
   -47
  0
VERTEX
  8
12PIA05-MAIN
  5
6A3D
 10
0.0
 20
0.0
 30
0.0
 70
   128
 71
    47
 72
    48
 73
   -45
  0
VERTEX
  8
12PIA05-MAIN
  5
6A3E
 10
0.0
 20
0.0
 30
0.0
 70
   128
 71
    46
 72
    49
 73
   -50
  0
VERTEX
  8
12PIA05-MAIN
  5
6A3F
 10
0.0
 20
0.0
 30
0.0
 70
   128
 71
    50
 72
    47
 73
   -46
  0
VERTEX
  8
12PIA05-MAIN
  5
6A40
 10
0.0
 20
0.0
 30
0.0
 70
   128
 71
    51
 72
    52
 73
   -53
  0
VERTEX
  8
12PIA05-MAIN
  5
6A41
 10
0.0
 20
0.0
 30
0.0
 70
   128
 71
    53
 72
    54
 73
   -51
  0
VERTEX
  8
12PIA05-MAIN
  5
6A42
 10
0.0
 20
0.0
 30
0.0
 70
   128
 71
    52
 72
    55
 73
   -56
  0
VERTEX
  8
12PIA05-MAIN
  5
6A43
 10
0.0
 20
0.0
 30
0.0
 70
   128
 71
    56
 72
    53
 73
   -52
  0
VERTEX
  8
12PIA05-MAIN
  5
6A44
 10
0.0
 20
0.0
 30
0.0
 70
   128
 71
    55
 72
    57
 73
   -58
  0
VERTEX
  8
12PIA05-MAIN
  5
6A45
 10
0.0
 20
0.0
 30
0.0
 70
   128
 71
    58
 72
    56
 73
   -55
  0
VERTEX
  8
12PIA05-MAIN
  5
6A46
 10
0.0
 20
0.0
 30
0.0
 70
   128
 71
    57
 72
    59
 73
   -60
  0
VERTEX
  8
12PIA05-MAIN
  5
6A47
 10
0.0
 20
0.0
 30
0.0
 70
   128
 71
    60
 72
    58
 73
   -57
  0
VERTEX
  8
12PIA05-MAIN
  5
6A48
 10
0.0
 20
0.0
 30
0.0
 70
   128
 71
    61
 72
    62
 73
   -63
  0
VERTEX
  8
12PIA05-MAIN
  5
6A49
 10
0.0
 20
0.0
 30
0.0
 70
   128
 71
    63
 72
    64
 73
   -61
  0
VERTEX
  8
12PIA05-MAIN
  5
6A4A
 10
0.0
 20
0.0
 30
0.0
 70
   128
 71
    65
 72
    66
 73
   -67
  0
VERTEX
  8
12PIA05-MAIN
  5
6A4B
 10
0.0
 20
0.0
 30
0.0
 70
   128
 71
    67
 72
    68
 73
   -65
  0
VERTEX
  8
12PIA05-MAIN
  5
6A4C
 10
0.0
 20
0.0
 30
0.0
 70
   128
 71
    69
 72
   -70
 73
    71
  0
VERTEX
  8
12PIA05-MAIN
  5
6A4D
 10
0.0
 20
0.0
 30
0.0
 70
   128
 71
    72
 72
   -71
 73
    70
  0
VERTEX
  8
12PIA05-MAIN
  5
6A4E
 10
0.0
 20
0.0
 30
0.0
 70
   128
 71
    73
 72
   -69
 73
    74
  0
VERTEX
  8
12PIA05-MAIN
  5
6A4F
 10
0.0
 20
0.0
 30
0.0
 70
   128
 71
    71
 72
   -74
 73
    69
  0
VERTEX
  8
12PIA05-MAIN
  5
6A50
 10
0.0
 20
0.0
 30
0.0
 70
   128
 71
    75
 72
   -73
 73
    76
  0
VERTEX
  8
12PIA05-MAIN
  5
6A51
 10
0.0
 20
0.0
 30
0.0
 70
   128
 71
    74
 72
   -76
 73
    73
  0
VERTEX
  8
12PIA05-MAIN
  5
6A52
 10
0.0
 20
0.0
 30
0.0
 70
   128
 71
    77
 72
   -75
 73
    78
  0
VERTEX
  8
12PIA05-MAIN
  5
6A53
 10
0.0
 20
0.0
 30
0.0
 70
   128
 71
    76
 72
   -78
 73
    75
  0
VERTEX
  8
12PIA05-MAIN
  5
6A54
 10
0.0
 20
0.0
 30
0.0
 70
   128
 71
    79
 72
   -80
 73
    81
  0
VERTEX
  8
12PIA05-MAIN
  5
6A55
 10
0.0
 20
0.0
 30
0.0
 70
   128
 71
    82
 72
   -81
 73
    80
  0
VERTEX
  8
12PIA05-MAIN
  5
6A56
 10
0.0
 20
0.0
 30
0.0
 70
   128
 71
    83
 72
   -79
 73
    84
  0
VERTEX
  8
12PIA05-MAIN
  5
6A57
 10
0.0
 20
0.0
 30
0.0
 70
   128
 71
    81
 72
   -84
 73
    79
  0
VERTEX
  8
12PIA05-MAIN
  5
6A58
 10
0.0
 20
0.0
 30
0.0
 70
   128
 71
    85
 72
   -83
 73
    86
  0
VERTEX
  8
12PIA05-MAIN
  5
6A59
 10
0.0
 20
0.0
 30
0.0
 70
   128
 71
    84
 72
   -86
 73
    83
  0
VERTEX
  8
12PIA05-MAIN
  5
6A5A
 10
0.0
 20
0.0
 30
0.0
 70
   128
 71
    87
 72
   -85
 73
    88
  0
VERTEX
  8
12PIA05-MAIN
  5
6A5B
 10
0.0
 20
0.0
 30
0.0
 70
   128
 71
    86
 72
   -88
 73
    85
  0
VERTEX
  8
12PIA05-MAIN
  5
6A5C
 10
0.0
 20
0.0
 30
0.0
 70
   128
 71
    89
 72
   -90
 73
    91
  0
VERTEX
  8
12PIA05-MAIN
  5
6A5D
 10
0.0
 20
0.0
 30
0.0
 70
   128
 71
    92
 72
   -91
 73
    90
  0
VERTEX
  8
12PIA05-MAIN
  5
6A5E
 10
0.0
 20
0.0
 30
0.0
 70
   128
 71
    93
 72
   -89
 73
    94
  0
VERTEX
  8
12PIA05-MAIN
  5
6A5F
 10
0.0
 20
0.0
 30
0.0
 70
   128
 71
    91
 72
   -94
 73
    89
  0
VERTEX
  8
12PIA05-MAIN
  5
6A60
 10
0.0
 20
0.0
 30
0.0
 70
   128
 71
    95
 72
   -96
 73
    97
  0
VERTEX
  8
12PIA05-MAIN
  5
6A61
 10
0.0
 20
0.0
 30
0.0
 70
   128
 71
    98
 72
   -97
 73
    96
  0
VERTEX
  8
12PIA05-MAIN
  5
6A62
 10
0.0
 20
0.0
 30
0.0
 70
   128
 71
    99
 72
   -95
 73
   100
  0
VERTEX
  8
12PIA05-MAIN
  5
6A63
 10
0.0
 20
0.0
 30
0.0
 70
   128
 71
    97
 72
  -100
 73
    95
  0
VERTEX
  8
12PIA05-MAIN
  5
6A64
 10
0.0
 20
0.0
 30
0.0
 70
   128
 71
   101
 72
   -99
 73
   102
  0
VERTEX
  8
12PIA05-MAIN
  5
6A65
 10
0.0
 20
0.0
 30
0.0
 70
   128
 71
   100
 72
  -102
 73
    99
  0
VERTEX
  8
12PIA05-MAIN
  5
6A66
 10
0.0
 20
0.0
 30
0.0
 70
   128
 71
   103
 72
  -101
 73
   104
  0
VERTEX
  8
12PIA05-MAIN
  5
6A67
 10
0.0
 20
0.0
 30
0.0
 70
   128
 71
   102
 72
  -104
 73
   101
  0
VERTEX
  8
12PIA05-MAIN
  5
6A68
 10
0.0
 20
0.0
 30
0.0
 70
   128
 71
   105
 72
  -106
 73
   107
  0
VERTEX
  8
12PIA05-MAIN
  5
6A69
 10
0.0
 20
0.0
 30
0.0
 70
   128
 71
   108
 72
  -107
 73
   106
  0
VERTEX
  8
12PIA05-MAIN
  5
6A6A
 10
0.0
 20
0.0
 30
0.0
 70
   128
 71
   109
 72
   110
 73
  -111
  0
VERTEX
  8
12PIA05-MAIN
  5
6A6B
 10
0.0
 20
0.0
 30
0.0
 70
   128
 71
   111
 72
   112
 73
  -109
  0
VERTEX
  8
12PIA05-MAIN
  5
6A6C
 10
0.0
 20
0.0
 30
0.0
 70
   128
 71
   113
 72
   114
 73
  -115
  0
VERTEX
  8
12PIA05-MAIN
  5
6A6D
 10
0.0
 20
0.0
 30
0.0
 70
   128
 71
   115
 72
   116
 73
  -113
  0
VERTEX
  8
12PIA05-MAIN
  5
6A6E
 10
0.0
 20
0.0
 30
0.0
 70
   128
 71
   114
 72
   117
 73
  -118
  0
VERTEX
  8
12PIA05-MAIN
  5
6A6F
 10
0.0
 20
0.0
 30
0.0
 70
   128
 71
   118
 72
   115
 73
  -114
  0
VERTEX
  8
12PIA05-MAIN
  5
6A70
 10
0.0
 20
0.0
 30
0.0
 70
   128
 71
   117
 72
   119
 73
  -120
  0
VERTEX
  8
12PIA05-MAIN
  5
6A71
 10
0.0
 20
0.0
 30
0.0
 70
   128
 71
   120
 72
   118
 73
  -117
  0
VERTEX
  8
12PIA05-MAIN
  5
6A72
 10
0.0
 20
0.0
 30
0.0
 70
   128
 71
   119
 72
   121
 73
  -122
  0
VERTEX
  8
12PIA05-MAIN
  5
6A73
 10
0.0
 20
0.0
 30
0.0
 70
   128
 71
   122
 72
   120
 73
  -119
  0
VERTEX
  8
12PIA05-MAIN
  5
6A74
 10
0.0
 20
0.0
 30
0.0
 70
   128
 71
   123
 72
   124
 73
  -125
  0
VERTEX
  8
12PIA05-MAIN
  5
6A75
 10
0.0
 20
0.0
 30
0.0
 70
   128
 71
   125
 72
   126
 73
  -123
  0
VERTEX
  8
12PIA05-MAIN
  5
6A76
 10
0.0
 20
0.0
 30
0.0
 70
   128
 71
   124
 72
   127
 73
  -128
  0
VERTEX
  8
12PIA05-MAIN
  5
6A77
 10
0.0
 20
0.0
 30
0.0
 70
   128
 71
   128
 72
   125
 73
  -124
  0
SEQEND
  8
12PIA05-MAIN
  5
6A78
  0
POLYLINE
  8
12PIA05-MAIN
  5
6A79
 66
     1
 10
0.0
 20
0.0
 30
0.0
 70
    64
 71
   180
 72
   204
1001
AVE_ENTITY_MATERIAL
1002
{
1000

1002
{
1071
        0
1070
     0
1070
     0
1002
{
1070
     0
1070
     0
1070
     0
1040
0.0
1002
}
1070
     0
1070
     0
1002
{
1002
}
1002
}
1002
{
1002
}
1002
{
1002
}
1011
0.0
1021
0.0
1031
0.0
1011
1.0
1021
0.0
1031
0.0
1011
0.0
1021
1.0
1031
0.0
1011
0.0
1021
0.0
1031
1.0
1002
}
1001
AVE_FINISH
1002
{
1070
     0
1005
6773
1002
}
  0
VERTEX
  8
12PIA05-MAIN
  5
6A7A
 10
-5.632
 20
19.885
 30
25.981
 70
   192
  0
VERTEX
  8
12PIA05-MAIN
  5
6A7B
 10
-5.632
 20
19.704
 30
25.331
 70
   192
  0
VERTEX
  8
12PIA05-MAIN
  5
6A7C
 10
-2.332
 20
19.704
 30
25.331
 70
   192
  0
VERTEX
  8
12PIA05-MAIN
  5
6A7D
 10
-2.332
 20
19.885
 30
25.981
 70
   192
  0
VERTEX
  8
12PIA05-MAIN
  5
6A7E
 10
-5.632
 20
19.385
 30
24.995
 70
   192
  0
VERTEX
  8
12PIA05-MAIN
  5
6A7F
 10
-2.332
 20
19.385
 30
24.995
 70
   192
  0
VERTEX
  8
12PIA05-MAIN
  5
6A80
 10
-5.632
 20
17.893
 30
24.462
 70
   192
  0
VERTEX
  8
12PIA05-MAIN
  5
6A81
 10
-5.632
 20
17.412
 30
24.107
 70
   192
  0
VERTEX
  8
12PIA05-MAIN
  5
6A82
 10
-2.332
 20
17.412
 30
24.107
 70
   192
  0
VERTEX
  8
12PIA05-MAIN
  5
6A83
 10
-2.332
 20
17.893
 30
24.462
 70
   192
  0
VERTEX
  8
12PIA05-MAIN
  5
6A84
 10
-5.632
 20
17.104
 30
23.635
 70
   192
  0
VERTEX
  8
12PIA05-MAIN
  5
6A85
 10
-2.332
 20
17.104
 30
23.635
 70
   192
  0
VERTEX
  8
12PIA05-MAIN
  5
6A86
 10
-5.632
 20
16.789
 30
22.644
 70
   192
  0
VERTEX
  8
12PIA05-MAIN
  5
6A87
 10
-2.332
 20
16.789
 30
22.644
 70
   192
  0
VERTEX
  8
12PIA05-MAIN
  5
6A88
 10
-5.632
 20
16.295
 30
22.249
 70
   192
  0
VERTEX
  8
12PIA05-MAIN
  5
6A89
 10
-2.332
 20
16.295
 30
22.249
 70
   192
  0
VERTEX
  8
12PIA05-MAIN
  5
6A8A
 10
-5.632
 20
15.566
 30
22.184
 70
   192
  0
VERTEX
  8
12PIA05-MAIN
  5
6A8B
 10
-5.632
 20
15.566
 30
21.17
 70
   192
  0
VERTEX
  8
12PIA05-MAIN
  5
6A8C
 10
-2.332
 20
15.566
 30
21.17
 70
   192
  0
VERTEX
  8
12PIA05-MAIN
  5
6A8D
 10
-2.332
 20
15.566
 30
22.184
 70
   192
  0
VERTEX
  8
12PIA05-MAIN
  5
6A8E
 10
-5.632
 20
11.472
 30
22.184
 70
   192
  0
VERTEX
  8
12PIA05-MAIN
  5
6A8F
 10
-5.632
 20
11.472
 30
21.17
 70
   192
  0
VERTEX
  8
12PIA05-MAIN
  5
6A90
 10
-2.332
 20
11.472
 30
22.184
 70
   192
  0
VERTEX
  8
12PIA05-MAIN
  5
6A91
 10
-2.332
 20
11.472
 30
21.17
 70
   192
  0
VERTEX
  8
12PIA05-MAIN
  5
6A92
 10
-5.632
 20
10.25
 30
22.644
 70
   192
  0
VERTEX
  8
12PIA05-MAIN
  5
6A93
 10
-5.632
 20
10.744
 30
22.249
 70
   192
  0
VERTEX
  8
12PIA05-MAIN
  5
6A94
 10
-2.332
 20
10.25
 30
22.644
 70
   192
  0
VERTEX
  8
12PIA05-MAIN
  5
6A95
 10
-2.332
 20
10.744
 30
22.249
 70
   192
  0
VERTEX
  8
12PIA05-MAIN
  5
6A96
 10
-5.632
 20
9.936
 30
23.635
 70
   192
  0
VERTEX
  8
12PIA05-MAIN
  5
6A97
 10
-2.332
 20
9.936
 30
23.635
 70
   192
  0
VERTEX
  8
12PIA05-MAIN
  5
6A98
 10
-5.632
 20
9.626
 30
24.107
 70
   192
  0
VERTEX
  8
12PIA05-MAIN
  5
6A99
 10
-2.332
 20
9.626
 30
24.107
 70
   192
  0
VERTEX
  8
12PIA05-MAIN
  5
6A9A
 10
-5.632
 20
9.146
 30
24.462
 70
   192
  0
VERTEX
  8
12PIA05-MAIN
  5
6A9B
 10
-2.332
 20
9.146
 30
24.462
 70
   192
  0
VERTEX
  8
12PIA05-MAIN
  5
6A9C
 10
-5.632
 20
7.334
 30
25.331
 70
   192
  0
VERTEX
  8
12PIA05-MAIN
  5
6A9D
 10
-5.632
 20
7.655
 30
24.995
 70
   192
  0
VERTEX
  8
12PIA05-MAIN
  5
6A9E
 10
-2.332
 20
7.334
 30
25.331
 70
   192
  0
VERTEX
  8
12PIA05-MAIN
  5
6A9F
 10
-2.332
 20
7.655
 30
24.995
 70
   192
  0
VERTEX
  8
12PIA05-MAIN
  5
6AA0
 10
-5.632
 20
7.154
 30
25.981
 70
   192
  0
VERTEX
  8
12PIA05-MAIN
  5
6AA1
 10
-2.332
 20
7.154
 30
25.981
 70
   192
  0
VERTEX
  8
12PIA05-MAIN
  5
6AA2
 10
60.229
 20
-1.128
 30
25.332
 70
   192
  0
VERTEX
  8
12PIA05-MAIN
  5
6AA3
 10
59.826
 20
-1.128
 30
24.996
 70
   192
  0
VERTEX
  8
12PIA05-MAIN
  5
6AA4
 10
52.421
 20
-1.128
 30
25.982
 70
   192
  0
VERTEX
  8
12PIA05-MAIN
  5
6AA5
 10
60.457
 20
-1.128
 30
25.982
 70
   192
  0
VERTEX
  8
12PIA05-MAIN
  5
6AA6
 10
55.004
 20
-1.128
 30
22.186
 70
   192
  0
VERTEX
  8
12PIA05-MAIN
  5
6AA7
 10
55.004
 20
-1.128
 30
21.172
 70
   192
  0
VERTEX
  8
12PIA05-MAIN
  5
6AA8
 10
55.925
 20
-1.128
 30
22.25
 70
   192
  0
VERTEX
  8
12PIA05-MAIN
  5
6AA9
 10
56.549
 20
-1.128
 30
22.645
 70
   192
  0
VERTEX
  8
12PIA05-MAIN
  5
6AAA
 10
56.945
 20
-1.128
 30
23.636
 70
   192
  0
VERTEX
  8
12PIA05-MAIN
  5
6AAB
 10
57.335
 20
-1.128
 30
24.108
 70
   192
  0
VERTEX
  8
12PIA05-MAIN
  5
6AAC
 10
57.942
 20
-1.128
 30
24.463
 70
   192
  0
VERTEX
  8
12PIA05-MAIN
  5
6AAD
 10
60.229
 20
-3.628
 30
25.332
 70
   192
  0
VERTEX
  8
12PIA05-MAIN
  5
6AAE
 10
59.826
 20
-3.628
 30
24.996
 70
   192
  0
VERTEX
  8
12PIA05-MAIN
  5
6AAF
 10
52.42
 20
-3.628
 30
25.982
 70
   192
  0
VERTEX
  8
12PIA05-MAIN
  5
6AB0
 10
60.457
 20
-3.628
 30
25.982
 70
   192
  0
VERTEX
  8
12PIA05-MAIN
  5
6AB1
 10
55.004
 20
-3.628
 30
22.186
 70
   192
  0
VERTEX
  8
12PIA05-MAIN
  5
6AB2
 10
55.004
 20
-3.628
 30
21.172
 70
   192
  0
VERTEX
  8
12PIA05-MAIN
  5
6AB3
 10
55.925
 20
-3.628
 30
22.25
 70
   192
  0
VERTEX
  8
12PIA05-MAIN
  5
6AB4
 10
56.549
 20
-3.628
 30
22.645
 70
   192
  0
VERTEX
  8
12PIA05-MAIN
  5
6AB5
 10
56.945
 20
-3.628
 30
23.636
 70
   192
  0
VERTEX
  8
12PIA05-MAIN
  5
6AB6
 10
57.335
 20
-3.628
 30
24.108
 70
   192
  0
VERTEX
  8
12PIA05-MAIN
  5
6AB7
 10
57.942
 20
-3.628
 30
24.463
 70
   192
  0
VERTEX
  8
12PIA05-MAIN
  5
6AB8
 10
62.74
 20
-3.528
 30
25.982
 70
   192
  0
VERTEX
  8
12PIA05-MAIN
  5
6AB9
 10
62.754
 20
-3.528
 30
28.876
 70
   192
  0
VERTEX
  8
12PIA05-MAIN
  5
6ABA
 10
50.788
 20
-3.528
 30
25.982
 70
   192
  0
VERTEX
  8
12PIA05-MAIN
  5
6ABB
 10
62.412
 20
-3.528
 30
30.14
 70
   192
  0
VERTEX
  8
12PIA05-MAIN
  5
6ABC
 10
62.74
 20
-0.54
 30
25.982
 70
   192
  0
VERTEX
  8
12PIA05-MAIN
  5
6ABD
 10
62.754
 20
-0.54
 30
28.876
 70
   192
  0
VERTEX
  8
12PIA05-MAIN
  5
6ABE
 10
50.788
 20
-0.54
 30
25.982
 70
   192
  0
VERTEX
  8
12PIA05-MAIN
  5
6ABF
 10
62.412
 20
-0.54
 30
30.14
 70
   192
  0
VERTEX
  8
12PIA05-MAIN
  5
6AC0
 10
54.772
 20
-0.54
 30
35.558
 70
   192
  0
VERTEX
  8
12PIA05-MAIN
  5
6AC1
 10
54.953
 20
-0.54
 30
34.326
 70
   192
  0
VERTEX
  8
12PIA05-MAIN
  5
6AC2
 10
54.772
 20
-0.54
 30
37.933
 70
   192
  0
VERTEX
  8
12PIA05-MAIN
  5
6AC3
 10
50.788
 20
-0.54
 30
37.934
 70
   192
  0
VERTEX
  8
12PIA05-MAIN
  5
6AC4
 10
54.772
 20
-3.528
 30
35.558
 70
   192
  0
VERTEX
  8
12PIA05-MAIN
  5
6AC5
 10
54.953
 20
-3.528
 30
34.326
 70
   192
  0
VERTEX
  8
12PIA05-MAIN
  5
6AC6
 10
54.772
 20
-3.528
 30
37.933
 70
   192
  0
VERTEX
  8
12PIA05-MAIN
  5
6AC7
 10
50.788
 20
-3.528
 30
37.934
 70
   192
  0
VERTEX
  8
12PIA05-MAIN
  5
6AC8
 10
61.668
 20
-3.528
 30
31.116
 70
   192
  0
VERTEX
  8
12PIA05-MAIN
  5
6AC9
 10
60.766
 20
-3.528
 30
31.741
 70
   192
  0
VERTEX
  8
12PIA05-MAIN
  5
6ACA
 10
59.74
 20
-3.528
 30
31.958
 70
   192
  0
VERTEX
  8
12PIA05-MAIN
  5
6ACB
 10
57.251
 20
-3.528
 30
32.012
 70
   192
  0
VERTEX
  8
12PIA05-MAIN
  5
6ACC
 10
55.474
 20
-0.54
 30
33.244
 70
   192
  0
VERTEX
  8
12PIA05-MAIN
  5
6ACD
 10
56.272
 20
-0.54
 30
32.44
 70
   192
  0
VERTEX
  8
12PIA05-MAIN
  5
6ACE
 10
55.474
 20
-3.528
 30
33.244
 70
   192
  0
VERTEX
  8
12PIA05-MAIN
  5
6ACF
 10
56.272
 20
-3.528
 30
32.44
 70
   192
  0
VERTEX
  8
12PIA05-MAIN
  5
6AD0
 10
60.766
 20
-0.54
 30
31.741
 70
   192
  0
VERTEX
  8
12PIA05-MAIN
  5
6AD1
 10
61.668
 20
-0.54
 30
31.116
 70
   192
  0
VERTEX
  8
12PIA05-MAIN
  5
6AD2
 10
59.74
 20
-0.54
 30
31.958
 70
   192
  0
VERTEX
  8
12PIA05-MAIN
  5
6AD3
 10
57.251
 20
-0.54
 30
32.012
 70
   192
  0
VERTEX
  8
12PIA05-MAIN
  5
6AD4
 10
44.383
 20
-3.628
 30
25.982
 70
   192
  0
VERTEX
  8
12PIA05-MAIN
  5
6AD5
 10
48.292
 20
-3.628
 30
22.645
 70
   192
  0
VERTEX
  8
12PIA05-MAIN
  5
6AD6
 10
47.896
 20
-3.628
 30
23.636
 70
   192
  0
VERTEX
  8
12PIA05-MAIN
  5
6AD7
 10
48.916
 20
-3.628
 30
22.25
 70
   192
  0
VERTEX
  8
12PIA05-MAIN
  5
6AD8
 10
49.835
 20
-3.628
 30
22.186
 70
   192
  0
VERTEX
  8
12PIA05-MAIN
  5
6AD9
 10
49.835
 20
-3.628
 30
21.172
 70
   192
  0
VERTEX
  8
12PIA05-MAIN
  5
6ADA
 10
44.611
 20
-3.628
 30
25.332
 70
   192
  0
VERTEX
  8
12PIA05-MAIN
  5
6ADB
 10
45.014
 20
-3.628
 30
24.996
 70
   192
  0
VERTEX
  8
12PIA05-MAIN
  5
6ADC
 10
46.898
 20
-3.628
 30
24.463
 70
   192
  0
VERTEX
  8
12PIA05-MAIN
  5
6ADD
 10
47.504
 20
-3.628
 30
24.108
 70
   192
  0
VERTEX
  8
12PIA05-MAIN
  5
6ADE
 10
44.383
 20
-1.128
 30
25.982
 70
   192
  0
VERTEX
  8
12PIA05-MAIN
  5
6ADF
 10
44.611
 20
-1.128
 30
25.332
 70
   192
  0
VERTEX
  8
12PIA05-MAIN
  5
6AE0
 10
45.014
 20
-1.128
 30
24.996
 70
   192
  0
VERTEX
  8
12PIA05-MAIN
  5
6AE1
 10
46.898
 20
-1.128
 30
24.463
 70
   192
  0
VERTEX
  8
12PIA05-MAIN
  5
6AE2
 10
47.504
 20
-1.128
 30
24.108
 70
   192
  0
VERTEX
  8
12PIA05-MAIN
  5
6AE3
 10
47.896
 20
-1.128
 30
23.636
 70
   192
  0
VERTEX
  8
12PIA05-MAIN
  5
6AE4
 10
48.292
 20
-1.128
 30
22.645
 70
   192
  0
VERTEX
  8
12PIA05-MAIN
  5
6AE5
 10
48.916
 20
-1.128
 30
22.25
 70
   192
  0
VERTEX
  8
12PIA05-MAIN
  5
6AE6
 10
49.835
 20
-1.128
 30
22.186
 70
   192
  0
VERTEX
  8
12PIA05-MAIN
  5
6AE7
 10
49.835
 20
-1.128
 30
21.172
 70
   192
  0
VERTEX
  8
12PIA05-MAIN
  5
6AE8
 10
62.74
 20
50.484
 30
25.982
 70
   192
  0
VERTEX
  8
12PIA05-MAIN
  5
6AE9
 10
62.754
 20
50.484
 30
28.876
 70
   192
  0
VERTEX
  8
12PIA05-MAIN
  5
6AEA
 10
50.788
 20
50.484
 30
25.982
 70
   192
  0
VERTEX
  8
12PIA05-MAIN
  5
6AEB
 10
62.412
 20
50.484
 30
30.14
 70
   192
  0
VERTEX
  8
12PIA05-MAIN
  5
6AEC
 10
61.668
 20
50.484
 30
31.116
 70
   192
  0
VERTEX
  8
12PIA05-MAIN
  5
6AED
 10
60.766
 20
50.484
 30
31.741
 70
   192
  0
VERTEX
  8
12PIA05-MAIN
  5
6AEE
 10
59.74
 20
50.484
 30
31.958
 70
   192
  0
VERTEX
  8
12PIA05-MAIN
  5
6AEF
 10
57.251
 20
50.484
 30
32.012
 70
   192
  0
VERTEX
  8
12PIA05-MAIN
  5
6AF0
 10
56.272
 20
50.484
 30
32.44
 70
   192
  0
VERTEX
  8
12PIA05-MAIN
  5
6AF1
 10
55.474
 20
50.484
 30
33.244
 70
   192
  0
VERTEX
  8
12PIA05-MAIN
  5
6AF2
 10
54.953
 20
50.484
 30
34.326
 70
   192
  0
VERTEX
  8
12PIA05-MAIN
  5
6AF3
 10
54.772
 20
50.484
 30
35.558
 70
   192
  0
VERTEX
  8
12PIA05-MAIN
  5
6AF4
 10
54.772
 20
50.484
 30
37.933
 70
   192
  0
VERTEX
  8
12PIA05-MAIN
  5
6AF5
 10
50.788
 20
50.484
 30
37.934
 70
   192
  0
VERTEX
  8
12PIA05-MAIN
  5
6AF6
 10
62.754
 20
53.472
 30
28.876
 70
   192
  0
VERTEX
  8
12PIA05-MAIN
  5
6AF7
 10
62.74
 20
53.472
 30
25.982
 70
   192
  0
VERTEX
  8
12PIA05-MAIN
  5
6AF8
 10
50.788
 20
53.472
 30
25.982
 70
   192
  0
VERTEX
  8
12PIA05-MAIN
  5
6AF9
 10
62.412
 20
53.472
 30
30.14
 70
   192
  0
VERTEX
  8
12PIA05-MAIN
  5
6AFA
 10
61.668
 20
53.472
 30
31.116
 70
   192
  0
VERTEX
  8
12PIA05-MAIN
  5
6AFB
 10
60.766
 20
53.472
 30
31.741
 70
   192
  0
VERTEX
  8
12PIA05-MAIN
  5
6AFC
 10
59.74
 20
53.472
 30
31.958
 70
   192
  0
VERTEX
  8
12PIA05-MAIN
  5
6AFD
 10
57.251
 20
53.472
 30
32.012
 70
   192
  0
VERTEX
  8
12PIA05-MAIN
  5
6AFE
 10
56.272
 20
53.472
 30
32.44
 70
   192
  0
VERTEX
  8
12PIA05-MAIN
  5
6AFF
 10
55.474
 20
53.472
 30
33.244
 70
   192
  0
VERTEX
  8
12PIA05-MAIN
  5
6B00
 10
54.953
 20
53.472
 30
34.326
 70
   192
  0
VERTEX
  8
12PIA05-MAIN
  5
6B01
 10
54.772
 20
53.472
 30
35.558
 70
   192
  0
VERTEX
  8
12PIA05-MAIN
  5
6B02
 10
54.772
 20
53.472
 30
37.933
 70
   192
  0
VERTEX
  8
12PIA05-MAIN
  5
6B03
 10
50.788
 20
53.472
 30
37.934
 70
   192
  0
VERTEX
  8
12PIA05-MAIN
  5
6B04
 10
55.004
 20
52.884
 30
21.172
 70
   192
  0
VERTEX
  8
12PIA05-MAIN
  5
6B05
 10
55.004
 20
52.884
 30
22.186
 70
   192
  0
VERTEX
  8
12PIA05-MAIN
  5
6B06
 10
52.421
 20
52.884
 30
25.982
 70
   192
  0
VERTEX
  8
12PIA05-MAIN
  5
6B07
 10
55.925
 20
52.884
 30
22.25
 70
   192
  0
VERTEX
  8
12PIA05-MAIN
  5
6B08
 10
56.549
 20
52.884
 30
22.645
 70
   192
  0
VERTEX
  8
12PIA05-MAIN
  5
6B09
 10
56.945
 20
52.884
 30
23.636
 70
   192
  0
VERTEX
  8
12PIA05-MAIN
  5
6B0A
 10
57.335
 20
52.884
 30
24.108
 70
   192
  0
VERTEX
  8
12PIA05-MAIN
  5
6B0B
 10
57.942
 20
52.884
 30
24.463
 70
   192
  0
VERTEX
  8
12PIA05-MAIN
  5
6B0C
 10
59.826
 20
52.884
 30
24.996
 70
   192
  0
VERTEX
  8
12PIA05-MAIN
  5
6B0D
 10
60.229
 20
52.884
 30
25.332
 70
   192
  0
VERTEX
  8
12PIA05-MAIN
  5
6B0E
 10
60.457
 20
52.884
 30
25.982
 70
   192
  0
VERTEX
  8
12PIA05-MAIN
  5
6B0F
 10
44.383
 20
52.884
 30
25.982
 70
   192
  0
VERTEX
  8
12PIA05-MAIN
  5
6B10
 10
44.611
 20
52.884
 30
25.332
 70
   192
  0
VERTEX
  8
12PIA05-MAIN
  5
6B11
 10
45.014
 20
52.884
 30
24.996
 70
   192
  0
VERTEX
  8
12PIA05-MAIN
  5
6B12
 10
46.898
 20
52.884
 30
24.463
 70
   192
  0
VERTEX
  8
12PIA05-MAIN
  5
6B13
 10
47.504
 20
52.884
 30
24.108
 70
   192
  0
VERTEX
  8
12PIA05-MAIN
  5
6B14
 10
47.896
 20
52.884
 30
23.636
 70
   192
  0
VERTEX
  8
12PIA05-MAIN
  5
6B15
 10
48.292
 20
52.884
 30
22.645
 70
   192
  0
VERTEX
  8
12PIA05-MAIN
  5
6B16
 10
48.916
 20
52.884
 30
22.25
 70
   192
  0
VERTEX
  8
12PIA05-MAIN
  5
6B17
 10
49.835
 20
52.884
 30
22.186
 70
   192
  0
VERTEX
  8
12PIA05-MAIN
  5
6B18
 10
49.835
 20
52.884
 30
21.172
 70
   192
  0
VERTEX
  8
12PIA05-MAIN
  5
6B19
 10
55.004
 20
50.384
 30
21.172
 70
   192
  0
VERTEX
  8
12PIA05-MAIN
  5
6B1A
 10
55.004
 20
50.384
 30
22.186
 70
   192
  0
VERTEX
  8
12PIA05-MAIN
  5
6B1B
 10
52.42
 20
50.384
 30
25.982
 70
   192
  0
VERTEX
  8
12PIA05-MAIN
  5
6B1C
 10
55.925
 20
50.384
 30
22.25
 70
   192
  0
VERTEX
  8
12PIA05-MAIN
  5
6B1D
 10
56.549
 20
50.384
 30
22.645
 70
   192
  0
VERTEX
  8
12PIA05-MAIN
  5
6B1E
 10
56.945
 20
50.384
 30
23.636
 70
   192
  0
VERTEX
  8
12PIA05-MAIN
  5
6B1F
 10
57.335
 20
50.384
 30
24.108
 70
   192
  0
VERTEX
  8
12PIA05-MAIN
  5
6B20
 10
57.942
 20
50.384
 30
24.463
 70
   192
  0
VERTEX
  8
12PIA05-MAIN
  5
6B21
 10
59.826
 20
50.384
 30
24.996
 70
   192
  0
VERTEX
  8
12PIA05-MAIN
  5
6B22
 10
60.229
 20
50.384
 30
25.332
 70
   192
  0
VERTEX
  8
12PIA05-MAIN
  5
6B23
 10
60.457
 20
50.384
 30
25.982
 70
   192
  0
VERTEX
  8
12PIA05-MAIN
  5
6B24
 10
44.383
 20
50.384
 30
25.982
 70
   192
  0
VERTEX
  8
12PIA05-MAIN
  5
6B25
 10
44.611
 20
50.384
 30
25.332
 70
   192
  0
VERTEX
  8
12PIA05-MAIN
  5
6B26
 10
45.014
 20
50.384
 30
24.996
 70
   192
  0
VERTEX
  8
12PIA05-MAIN
  5
6B27
 10
46.898
 20
50.384
 30
24.463
 70
   192
  0
VERTEX
  8
12PIA05-MAIN
  5
6B28
 10
47.504
 20
50.384
 30
24.108
 70
   192
  0
VERTEX
  8
12PIA05-MAIN
  5
6B29
 10
47.896
 20
50.384
 30
23.636
 70
   192
  0
VERTEX
  8
12PIA05-MAIN
  5
6B2A
 10
48.292
 20
50.384
 30
22.645
 70
   192
  0
VERTEX
  8
12PIA05-MAIN
  5
6B2B
 10
48.916
 20
50.384
 30
22.25
 70
   192
  0
VERTEX
  8
12PIA05-MAIN
  5
6B2C
 10
49.835
 20
50.384
 30
22.186
 70
   192
  0
VERTEX
  8
12PIA05-MAIN
  5
6B2D
 10
49.835
 20
50.384
 30
21.172
 70
   192
  0
VERTEX
  8
12PIA05-MAIN
  5
6B2E
 10
0.0
 20
0.0
 30
0.0
 70
   128
 71
     1
 72
     2
 73
    -3
  0
VERTEX
  8
12PIA05-MAIN
  5
6B2F
 10
0.0
 20
0.0
 30
0.0
 70
   128
 71
     3
 72
     4
 73
    -1
  0
VERTEX
  8
12PIA05-MAIN
  5
6B30
 10
0.0
 20
0.0
 30
0.0
 70
   128
 71
     2
 72
     5
 73
    -6
  0
VERTEX
  8
12PIA05-MAIN
  5
6B31
 10
0.0
 20
0.0
 30
0.0
 70
   128
 71
     6
 72
     3
 73
    -2
  0
VERTEX
  8
12PIA05-MAIN
  5
6B32
 10
0.0
 20
0.0
 30
0.0
 70
   128
 71
     7
 72
     8
 73
    -9
  0
VERTEX
  8
12PIA05-MAIN
  5
6B33
 10
0.0
 20
0.0
 30
0.0
 70
   128
 71
     9
 72
    10
 73
    -7
  0
VERTEX
  8
12PIA05-MAIN
  5
6B34
 10
0.0
 20
0.0
 30
0.0
 70
   128
 71
     8
 72
    11
 73
   -12
  0
VERTEX
  8
12PIA05-MAIN
  5
6B35
 10
0.0
 20
0.0
 30
0.0
 70
   128
 71
    12
 72
     9
 73
    -8
  0
VERTEX
  8
12PIA05-MAIN
  5
6B36
 10
0.0
 20
0.0
 30
0.0
 70
   128
 71
    11
 72
    13
 73
   -14
  0
VERTEX
  8
12PIA05-MAIN
  5
6B37
 10
0.0
 20
0.0
 30
0.0
 70
   128
 71
    14
 72
    12
 73
   -11
  0
VERTEX
  8
12PIA05-MAIN
  5
6B38
 10
0.0
 20
0.0
 30
0.0
 70
   128
 71
    13
 72
    15
 73
   -16
  0
VERTEX
  8
12PIA05-MAIN
  5
6B39
 10
0.0
 20
0.0
 30
0.0
 70
   128
 71
    16
 72
    14
 73
   -13
  0
VERTEX
  8
12PIA05-MAIN
  5
6B3A
 10
0.0
 20
0.0
 30
0.0
 70
   128
 71
    17
 72
    18
 73
   -19
  0
VERTEX
  8
12PIA05-MAIN
  5
6B3B
 10
0.0
 20
0.0
 30
0.0
 70
   128
 71
    19
 72
    20
 73
   -17
  0
VERTEX
  8
12PIA05-MAIN
  5
6B3C
 10
0.0
 20
0.0
 30
0.0
 70
   128
 71
    21
 72
   -22
 73
    23
  0
VERTEX
  8
12PIA05-MAIN
  5
6B3D
 10
0.0
 20
0.0
 30
0.0
 70
   128
 71
    24
 72
   -23
 73
    22
  0
VERTEX
  8
12PIA05-MAIN
  5
6B3E
 10
0.0
 20
0.0
 30
0.0
 70
   128
 71
    25
 72
   -26
 73
    27
  0
VERTEX
  8
12PIA05-MAIN
  5
6B3F
 10
0.0
 20
0.0
 30
0.0
 70
   128
 71
    28
 72
   -27
 73
    26
  0
VERTEX
  8
12PIA05-MAIN
  5
6B40
 10
0.0
 20
0.0
 30
0.0
 70
   128
 71
    29
 72
   -25
 73
    30
  0
VERTEX
  8
12PIA05-MAIN
  5
6B41
 10
0.0
 20
0.0
 30
0.0
 70
   128
 71
    27
 72
   -30
 73
    25
  0
VERTEX
  8
12PIA05-MAIN
  5
6B42
 10
0.0
 20
0.0
 30
0.0
 70
   128
 71
    31
 72
   -29
 73
    32
  0
VERTEX
  8
12PIA05-MAIN
  5
6B43
 10
0.0
 20
0.0
 30
0.0
 70
   128
 71
    30
 72
   -32
 73
    29
  0
VERTEX
  8
12PIA05-MAIN
  5
6B44
 10
0.0
 20
0.0
 30
0.0
 70
   128
 71
    33
 72
   -31
 73
    34
  0
VERTEX
  8
12PIA05-MAIN
  5
6B45
 10
0.0
 20
0.0
 30
0.0
 70
   128
 71
    32
 72
   -34
 73
    31
  0
VERTEX
  8
12PIA05-MAIN
  5
6B46
 10
0.0
 20
0.0
 30
0.0
 70
   128
 71
    35
 72
   -36
 73
    37
  0
VERTEX
  8
12PIA05-MAIN
  5
6B47
 10
0.0
 20
0.0
 30
0.0
 70
   128
 71
    38
 72
   -37
 73
    36
  0
VERTEX
  8
12PIA05-MAIN
  5
6B48
 10
0.0
 20
0.0
 30
0.0
 70
   128
 71
    39
 72
   -35
 73
    40
  0
VERTEX
  8
12PIA05-MAIN
  5
6B49
 10
0.0
 20
0.0
 30
0.0
 70
   128
 71
    37
 72
   -40
 73
    35
  0
VERTEX
  8
12PIA05-MAIN
  5
6B4A
 10
0.0
 20
0.0
 30
0.0
 70
   128
 71
    41
 72
    42
 73
    43
  0
VERTEX
  8
12PIA05-MAIN
  5
6B4B
 10
0.0
 20
0.0
 30
0.0
 70
   128
 71
    44
 72
    41
 73
    43
  0
VERTEX
  8
12PIA05-MAIN
  5
6B4C
 10
0.0
 20
0.0
 30
0.0
 70
   128
 71
    45
 72
    46
 73
    43
  0
VERTEX
  8
12PIA05-MAIN
  5
6B4D
 10
0.0
 20
0.0
 30
0.0
 70
   128
 71
    47
 72
    45
 73
    43
  0
VERTEX
  8
12PIA05-MAIN
  5
6B4E
 10
0.0
 20
0.0
 30
0.0
 70
   128
 71
    48
 72
    47
 73
    43
  0
VERTEX
  8
12PIA05-MAIN
  5
6B4F
 10
0.0
 20
0.0
 30
0.0
 70
   128
 71
    49
 72
    48
 73
    43
  0
VERTEX
  8
12PIA05-MAIN
  5
6B50
 10
0.0
 20
0.0
 30
0.0
 70
   128
 71
    50
 72
    49
 73
    43
  0
VERTEX
  8
12PIA05-MAIN
  5
6B51
 10
0.0
 20
0.0
 30
0.0
 70
   128
 71
    51
 72
    50
 73
    43
  0
VERTEX
  8
12PIA05-MAIN
  5
6B52
 10
0.0
 20
0.0
 30
0.0
 70
   128
 71
    42
 72
    51
 73
    43
  0
VERTEX
  8
12PIA05-MAIN
  5
6B53
 10
0.0
 20
0.0
 30
0.0
 70
   128
 71
    52
 72
    53
 73
    54
  0
VERTEX
  8
12PIA05-MAIN
  5
6B54
 10
0.0
 20
0.0
 30
0.0
 70
   128
 71
    55
 72
    52
 73
    54
  0
VERTEX
  8
12PIA05-MAIN
  5
6B55
 10
0.0
 20
0.0
 30
0.0
 70
   128
 71
    56
 72
    57
 73
    54
  0
VERTEX
  8
12PIA05-MAIN
  5
6B56
 10
0.0
 20
0.0
 30
0.0
 70
   128
 71
    58
 72
    56
 73
    54
  0
VERTEX
  8
12PIA05-MAIN
  5
6B57
 10
0.0
 20
0.0
 30
0.0
 70
   128
 71
    59
 72
    58
 73
    54
  0
VERTEX
  8
12PIA05-MAIN
  5
6B58
 10
0.0
 20
0.0
 30
0.0
 70
   128
 71
    60
 72
    59
 73
    54
  0
VERTEX
  8
12PIA05-MAIN
  5
6B59
 10
0.0
 20
0.0
 30
0.0
 70
   128
 71
    61
 72
    60
 73
    54
  0
VERTEX
  8
12PIA05-MAIN
  5
6B5A
 10
0.0
 20
0.0
 30
0.0
 70
   128
 71
    62
 72
    61
 73
    54
  0
VERTEX
  8
12PIA05-MAIN
  5
6B5B
 10
0.0
 20
0.0
 30
0.0
 70
   128
 71
    53
 72
    62
 73
    54
  0
VERTEX
  8
12PIA05-MAIN
  5
6B5C
 10
0.0
 20
0.0
 30
0.0
 70
   128
 71
    63
 72
    64
 73
    65
  0
VERTEX
  8
12PIA05-MAIN
  5
6B5D
 10
0.0
 20
0.0
 30
0.0
 70
   128
 71
    66
 72
    64
 73
    65
  0
VERTEX
  8
12PIA05-MAIN
  5
6B5E
 10
0.0
 20
0.0
 30
0.0
 70
   128
 71
    64
 72
    63
 73
    65
  0
VERTEX
  8
12PIA05-MAIN
  5
6B5F
 10
0.0
 20
0.0
 30
0.0
 70
   128
 71
    66
 72
    64
 73
    65
  0
VERTEX
  8
12PIA05-MAIN
  5
6B60
 10
0.0
 20
0.0
 30
0.0
 70
   128
 71
    67
 72
    68
 73
    69
  0
VERTEX
  8
12PIA05-MAIN
  5
6B61
 10
0.0
 20
0.0
 30
0.0
 70
   128
 71
    68
 72
    67
 73
    69
  0
VERTEX
  8
12PIA05-MAIN
  5
6B62
 10
0.0
 20
0.0
 30
0.0
 70
   128
 71
    70
 72
    68
 73
    69
  0
VERTEX
  8
12PIA05-MAIN
  5
6B63
 10
0.0
 20
0.0
 30
0.0
 70
   128
 71
    70
 72
    68
 73
    69
  0
VERTEX
  8
12PIA05-MAIN
  5
6B64
 10
0.0
 20
0.0
 30
0.0
 70
   128
 71
    71
 72
    72
 73
    69
  0
VERTEX
  8
12PIA05-MAIN
  5
6B65
 10
0.0
 20
0.0
 30
0.0
 70
   128
 71
    73
 72
    71
 73
    69
  0
VERTEX
  8
12PIA05-MAIN
  5
6B66
 10
0.0
 20
0.0
 30
0.0
 70
   128
 71
    74
 72
    73
 73
    69
  0
VERTEX
  8
12PIA05-MAIN
  5
6B67
 10
0.0
 20
0.0
 30
0.0
 70
   128
 71
    71
 72
    72
 73
    69
  0
VERTEX
  8
12PIA05-MAIN
  5
6B68
 10
0.0
 20
0.0
 30
0.0
 70
   128
 71
    73
 72
    71
 73
    69
  0
VERTEX
  8
12PIA05-MAIN
  5
6B69
 10
0.0
 20
0.0
 30
0.0
 70
   128
 71
    74
 72
    73
 73
    69
  0
VERTEX
  8
12PIA05-MAIN
  5
6B6A
 10
0.0
 20
0.0
 30
0.0
 70
   128
 71
    75
 72
    76
 73
    65
  0
VERTEX
  8
12PIA05-MAIN
  5
6B6B
 10
0.0
 20
0.0
 30
0.0
 70
   128
 71
    77
 72
    75
 73
    65
  0
VERTEX
  8
12PIA05-MAIN
  5
6B6C
 10
0.0
 20
0.0
 30
0.0
 70
   128
 71
    78
 72
    77
 73
    65
  0
VERTEX
  8
12PIA05-MAIN
  5
6B6D
 10
0.0
 20
0.0
 30
0.0
 70
   128
 71
    75
 72
    76
 73
    65
  0
VERTEX
  8
12PIA05-MAIN
  5
6B6E
 10
0.0
 20
0.0
 30
0.0
 70
   128
 71
    77
 72
    75
 73
    65
  0
VERTEX
  8
12PIA05-MAIN
  5
6B6F
 10
0.0
 20
0.0
 30
0.0
 70
   128
 71
    78
 72
    77
 73
    65
  0
VERTEX
  8
12PIA05-MAIN
  5
6B70
 10
0.0
 20
0.0
 30
0.0
 70
   128
 71
    79
 72
    66
 73
    65
  0
VERTEX
  8
12PIA05-MAIN
  5
6B71
 10
0.0
 20
0.0
 30
0.0
 70
   128
 71
    79
 72
    66
 73
    65
  0
VERTEX
  8
12PIA05-MAIN
  5
6B72
 10
0.0
 20
0.0
 30
0.0
 70
   128
 71
    80
 72
    79
 73
    65
  0
VERTEX
  8
12PIA05-MAIN
  5
6B73
 10
0.0
 20
0.0
 30
0.0
 70
   128
 71
    80
 72
    79
 73
    65
  0
VERTEX
  8
12PIA05-MAIN
  5
6B74
 10
0.0
 20
0.0
 30
0.0
 70
   128
 71
    81
 72
    80
 73
    65
  0
VERTEX
  8
12PIA05-MAIN
  5
6B75
 10
0.0
 20
0.0
 30
0.0
 70
   128
 71
    82
 72
    81
 73
    65
  0
VERTEX
  8
12PIA05-MAIN
  5
6B76
 10
0.0
 20
0.0
 30
0.0
 70
   128
 71
    81
 72
    80
 73
    65
  0
VERTEX
  8
12PIA05-MAIN
  5
6B77
 10
0.0
 20
0.0
 30
0.0
 70
   128
 71
    82
 72
    81
 73
    65
  0
VERTEX
  8
12PIA05-MAIN
  5
6B78
 10
0.0
 20
0.0
 30
0.0
 70
   128
 71
    83
 72
    84
 73
    69
  0
VERTEX
  8
12PIA05-MAIN
  5
6B79
 10
0.0
 20
0.0
 30
0.0
 70
   128
 71
    72
 72
    83
 73
    69
  0
VERTEX
  8
12PIA05-MAIN
  5
6B7A
 10
0.0
 20
0.0
 30
0.0
 70
   128
 71
    83
 72
    84
 73
    69
  0
VERTEX
  8
12PIA05-MAIN
  5
6B7B
 10
0.0
 20
0.0
 30
0.0
 70
   128
 71
    72
 72
    83
 73
    69
  0
VERTEX
  8
12PIA05-MAIN
  5
6B7C
 10
0.0
 20
0.0
 30
0.0
 70
   128
 71
    76
 72
    85
 73
    65
  0
VERTEX
  8
12PIA05-MAIN
  5
6B7D
 10
0.0
 20
0.0
 30
0.0
 70
   128
 71
    76
 72
    85
 73
    65
  0
VERTEX
  8
12PIA05-MAIN
  5
6B7E
 10
0.0
 20
0.0
 30
0.0
 70
   128
 71
    85
 72
    86
 73
    65
  0
VERTEX
  8
12PIA05-MAIN
  5
6B7F
 10
0.0
 20
0.0
 30
0.0
 70
   128
 71
    85
 72
    86
 73
    65
  0
VERTEX
  8
12PIA05-MAIN
  5
6B80
 10
0.0
 20
0.0
 30
0.0
 70
   128
 71
    86
 72
    82
 73
    65
  0
VERTEX
  8
12PIA05-MAIN
  5
6B81
 10
0.0
 20
0.0
 30
0.0
 70
   128
 71
    86
 72
    82
 73
    65
  0
VERTEX
  8
12PIA05-MAIN
  5
6B82
 10
0.0
 20
0.0
 30
0.0
 70
   128
 71
    87
 72
    88
 73
    69
  0
VERTEX
  8
12PIA05-MAIN
  5
6B83
 10
0.0
 20
0.0
 30
0.0
 70
   128
 71
    89
 72
    87
 73
    69
  0
VERTEX
  8
12PIA05-MAIN
  5
6B84
 10
0.0
 20
0.0
 30
0.0
 70
   128
 71
    90
 72
    89
 73
    69
  0
VERTEX
  8
12PIA05-MAIN
  5
6B85
 10
0.0
 20
0.0
 30
0.0
 70
   128
 71
    87
 72
    88
 73
    69
  0
VERTEX
  8
12PIA05-MAIN
  5
6B86
 10
0.0
 20
0.0
 30
0.0
 70
   128
 71
    89
 72
    87
 73
    69
  0
VERTEX
  8
12PIA05-MAIN
  5
6B87
 10
0.0
 20
0.0
 30
0.0
 70
   128
 71
    90
 72
    89
 73
    69
  0
VERTEX
  8
12PIA05-MAIN
  5
6B88
 10
0.0
 20
0.0
 30
0.0
 70
   128
 71
    84
 72
    90
 73
    69
  0
VERTEX
  8
12PIA05-MAIN
  5
6B89
 10
0.0
 20
0.0
 30
0.0
 70
   128
 71
    84
 72
    90
 73
    69
  0
VERTEX
  8
12PIA05-MAIN
  5
6B8A
 10
0.0
 20
0.0
 30
0.0
 70
   128
 71
    88
 72
    70
 73
    69
  0
VERTEX
  8
12PIA05-MAIN
  5
6B8B
 10
0.0
 20
0.0
 30
0.0
 70
   128
 71
    88
 72
    70
 73
    69
  0
VERTEX
  8
12PIA05-MAIN
  5
6B8C
 10
0.0
 20
0.0
 30
0.0
 70
   128
 71
    91
 72
    55
 73
    54
  0
VERTEX
  8
12PIA05-MAIN
  5
6B8D
 10
0.0
 20
0.0
 30
0.0
 70
   128
 71
    92
 72
    93
 73
    54
  0
VERTEX
  8
12PIA05-MAIN
  5
6B8E
 10
0.0
 20
0.0
 30
0.0
 70
   128
 71
    94
 72
    92
 73
    54
  0
VERTEX
  8
12PIA05-MAIN
  5
6B8F
 10
0.0
 20
0.0
 30
0.0
 70
   128
 71
    95
 72
    94
 73
    54
  0
VERTEX
  8
12PIA05-MAIN
  5
6B90
 10
0.0
 20
0.0
 30
0.0
 70
   128
 71
    96
 72
    95
 73
    54
  0
VERTEX
  8
12PIA05-MAIN
  5
6B91
 10
0.0
 20
0.0
 30
0.0
 70
   128
 71
    57
 72
    96
 73
    54
  0
VERTEX
  8
12PIA05-MAIN
  5
6B92
 10
0.0
 20
0.0
 30
0.0
 70
   128
 71
    97
 72
    91
 73
    54
  0
VERTEX
  8
12PIA05-MAIN
  5
6B93
 10
0.0
 20
0.0
 30
0.0
 70
   128
 71
    98
 72
    97
 73
    54
  0
VERTEX
  8
12PIA05-MAIN
  5
6B94
 10
0.0
 20
0.0
 30
0.0
 70
   128
 71
    99
 72
    98
 73
    54
  0
VERTEX
  8
12PIA05-MAIN
  5
6B95
 10
0.0
 20
0.0
 30
0.0
 70
   128
 71
   100
 72
    99
 73
    54
  0
VERTEX
  8
12PIA05-MAIN
  5
6B96
 10
0.0
 20
0.0
 30
0.0
 70
   128
 71
    93
 72
   100
 73
    54
  0
VERTEX
  8
12PIA05-MAIN
  5
6B97
 10
0.0
 20
0.0
 30
0.0
 70
   128
 71
   101
 72
    44
 73
    43
  0
VERTEX
  8
12PIA05-MAIN
  5
6B98
 10
0.0
 20
0.0
 30
0.0
 70
   128
 71
   102
 72
   101
 73
    43
  0
VERTEX
  8
12PIA05-MAIN
  5
6B99
 10
0.0
 20
0.0
 30
0.0
 70
   128
 71
   103
 72
   102
 73
    43
  0
VERTEX
  8
12PIA05-MAIN
  5
6B9A
 10
0.0
 20
0.0
 30
0.0
 70
   128
 71
   104
 72
   103
 73
    43
  0
VERTEX
  8
12PIA05-MAIN
  5
6B9B
 10
0.0
 20
0.0
 30
0.0
 70
   128
 71
   105
 72
   104
 73
    43
  0
VERTEX
  8
12PIA05-MAIN
  5
6B9C
 10
0.0
 20
0.0
 30
0.0
 70
   128
 71
   106
 72
   105
 73
    43
  0
VERTEX
  8
12PIA05-MAIN
  5
6B9D
 10
0.0
 20
0.0
 30
0.0
 70
   128
 71
   107
 72
   106
 73
    43
  0
VERTEX
  8
12PIA05-MAIN
  5
6B9E
 10
0.0
 20
0.0
 30
0.0
 70
   128
 71
   108
 72
   107
 73
    43
  0
VERTEX
  8
12PIA05-MAIN
  5
6B9F
 10
0.0
 20
0.0
 30
0.0
 70
   128
 71
   109
 72
   108
 73
    43
  0
VERTEX
  8
12PIA05-MAIN
  5
6BA0
 10
0.0
 20
0.0
 30
0.0
 70
   128
 71
   110
 72
   109
 73
    43
  0
VERTEX
  8
12PIA05-MAIN
  5
6BA1
 10
0.0
 20
0.0
 30
0.0
 70
   128
 71
    46
 72
   110
 73
    43
  0
VERTEX
  8
12PIA05-MAIN
  5
6BA2
 10
0.0
 20
0.0
 30
0.0
 70
   128
 71
   111
 72
   112
 73
   113
  0
VERTEX
  8
12PIA05-MAIN
  5
6BA3
 10
0.0
 20
0.0
 30
0.0
 70
   128
 71
   112
 72
   114
 73
   113
  0
VERTEX
  8
12PIA05-MAIN
  5
6BA4
 10
0.0
 20
0.0
 30
0.0
 70
   128
 71
   114
 72
   115
 73
   113
  0
VERTEX
  8
12PIA05-MAIN
  5
6BA5
 10
0.0
 20
0.0
 30
0.0
 70
   128
 71
   115
 72
   116
 73
   113
  0
VERTEX
  8
12PIA05-MAIN
  5
6BA6
 10
0.0
 20
0.0
 30
0.0
 70
   128
 71
   116
 72
   117
 73
   113
  0
VERTEX
  8
12PIA05-MAIN
  5
6BA7
 10
0.0
 20
0.0
 30
0.0
 70
   128
 71
   117
 72
   118
 73
   113
  0
VERTEX
  8
12PIA05-MAIN
  5
6BA8
 10
0.0
 20
0.0
 30
0.0
 70
   128
 71
   118
 72
   119
 73
   113
  0
VERTEX
  8
12PIA05-MAIN
  5
6BA9
 10
0.0
 20
0.0
 30
0.0
 70
   128
 71
   119
 72
   120
 73
   113
  0
VERTEX
  8
12PIA05-MAIN
  5
6BAA
 10
0.0
 20
0.0
 30
0.0
 70
   128
 71
   120
 72
   121
 73
   113
  0
VERTEX
  8
12PIA05-MAIN
  5
6BAB
 10
0.0
 20
0.0
 30
0.0
 70
   128
 71
   121
 72
   122
 73
   113
  0
VERTEX
  8
12PIA05-MAIN
  5
6BAC
 10
0.0
 20
0.0
 30
0.0
 70
   128
 71
   122
 72
   123
 73
   113
  0
VERTEX
  8
12PIA05-MAIN
  5
6BAD
 10
0.0
 20
0.0
 30
0.0
 70
   128
 71
   123
 72
   124
 73
   113
  0
VERTEX
  8
12PIA05-MAIN
  5
6BAE
 10
0.0
 20
0.0
 30
0.0
 70
   128
 71
   112
 72
   111
 73
   113
  0
VERTEX
  8
12PIA05-MAIN
  5
6BAF
 10
0.0
 20
0.0
 30
0.0
 70
   128
 71
   112
 72
   114
 73
   113
  0
VERTEX
  8
12PIA05-MAIN
  5
6BB0
 10
0.0
 20
0.0
 30
0.0
 70
   128
 71
   114
 72
   115
 73
   113
  0
VERTEX
  8
12PIA05-MAIN
  5
6BB1
 10
0.0
 20
0.0
 30
0.0
 70
   128
 71
   115
 72
   116
 73
   113
  0
VERTEX
  8
12PIA05-MAIN
  5
6BB2
 10
0.0
 20
0.0
 30
0.0
 70
   128
 71
   116
 72
   117
 73
   113
  0
VERTEX
  8
12PIA05-MAIN
  5
6BB3
 10
0.0
 20
0.0
 30
0.0
 70
   128
 71
   117
 72
   118
 73
   113
  0
VERTEX
  8
12PIA05-MAIN
  5
6BB4
 10
0.0
 20
0.0
 30
0.0
 70
   128
 71
   118
 72
   119
 73
   113
  0
VERTEX
  8
12PIA05-MAIN
  5
6BB5
 10
0.0
 20
0.0
 30
0.0
 70
   128
 71
   119
 72
   120
 73
   113
  0
VERTEX
  8
12PIA05-MAIN
  5
6BB6
 10
0.0
 20
0.0
 30
0.0
 70
   128
 71
   120
 72
   121
 73
   113
  0
VERTEX
  8
12PIA05-MAIN
  5
6BB7
 10
0.0
 20
0.0
 30
0.0
 70
   128
 71
   121
 72
   122
 73
   113
  0
VERTEX
  8
12PIA05-MAIN
  5
6BB8
 10
0.0
 20
0.0
 30
0.0
 70
   128
 71
   122
 72
   123
 73
   113
  0
VERTEX
  8
12PIA05-MAIN
  5
6BB9
 10
0.0
 20
0.0
 30
0.0
 70
   128
 71
   123
 72
   124
 73
   113
  0
VERTEX
  8
12PIA05-MAIN
  5
6BBA
 10
0.0
 20
0.0
 30
0.0
 70
   128
 71
   125
 72
   126
 73
   127
  0
VERTEX
  8
12PIA05-MAIN
  5
6BBB
 10
0.0
 20
0.0
 30
0.0
 70
   128
 71
   125
 72
   128
 73
   127
  0
VERTEX
  8
12PIA05-MAIN
  5
6BBC
 10
0.0
 20
0.0
 30
0.0
 70
   128
 71
   128
 72
   129
 73
   127
  0
VERTEX
  8
12PIA05-MAIN
  5
6BBD
 10
0.0
 20
0.0
 30
0.0
 70
   128
 71
   129
 72
   130
 73
   127
  0
VERTEX
  8
12PIA05-MAIN
  5
6BBE
 10
0.0
 20
0.0
 30
0.0
 70
   128
 71
   130
 72
   131
 73
   127
  0
VERTEX
  8
12PIA05-MAIN
  5
6BBF
 10
0.0
 20
0.0
 30
0.0
 70
   128
 71
   131
 72
   132
 73
   127
  0
VERTEX
  8
12PIA05-MAIN
  5
6BC0
 10
0.0
 20
0.0
 30
0.0
 70
   128
 71
   132
 72
   133
 73
   127
  0
VERTEX
  8
12PIA05-MAIN
  5
6BC1
 10
0.0
 20
0.0
 30
0.0
 70
   128
 71
   133
 72
   134
 73
   127
  0
VERTEX
  8
12PIA05-MAIN
  5
6BC2
 10
0.0
 20
0.0
 30
0.0
 70
   128
 71
   134
 72
   135
 73
   127
  0
VERTEX
  8
12PIA05-MAIN
  5
6BC3
 10
0.0
 20
0.0
 30
0.0
 70
   128
 71
   135
 72
   136
 73
   127
  0
VERTEX
  8
12PIA05-MAIN
  5
6BC4
 10
0.0
 20
0.0
 30
0.0
 70
   128
 71
   136
 72
   137
 73
   127
  0
VERTEX
  8
12PIA05-MAIN
  5
6BC5
 10
0.0
 20
0.0
 30
0.0
 70
   128
 71
   137
 72
   138
 73
   127
  0
VERTEX
  8
12PIA05-MAIN
  5
6BC6
 10
0.0
 20
0.0
 30
0.0
 70
   128
 71
   126
 72
   125
 73
   127
  0
VERTEX
  8
12PIA05-MAIN
  5
6BC7
 10
0.0
 20
0.0
 30
0.0
 70
   128
 71
   125
 72
   128
 73
   127
  0
VERTEX
  8
12PIA05-MAIN
  5
6BC8
 10
0.0
 20
0.0
 30
0.0
 70
   128
 71
   128
 72
   129
 73
   127
  0
VERTEX
  8
12PIA05-MAIN
  5
6BC9
 10
0.0
 20
0.0
 30
0.0
 70
   128
 71
   129
 72
   130
 73
   127
  0
VERTEX
  8
12PIA05-MAIN
  5
6BCA
 10
0.0
 20
0.0
 30
0.0
 70
   128
 71
   130
 72
   131
 73
   127
  0
VERTEX
  8
12PIA05-MAIN
  5
6BCB
 10
0.0
 20
0.0
 30
0.0
 70
   128
 71
   131
 72
   132
 73
   127
  0
VERTEX
  8
12PIA05-MAIN
  5
6BCC
 10
0.0
 20
0.0
 30
0.0
 70
   128
 71
   132
 72
   133
 73
   127
  0
VERTEX
  8
12PIA05-MAIN
  5
6BCD
 10
0.0
 20
0.0
 30
0.0
 70
   128
 71
   133
 72
   134
 73
   127
  0
VERTEX
  8
12PIA05-MAIN
  5
6BCE
 10
0.0
 20
0.0
 30
0.0
 70
   128
 71
   134
 72
   135
 73
   127
  0
VERTEX
  8
12PIA05-MAIN
  5
6BCF
 10
0.0
 20
0.0
 30
0.0
 70
   128
 71
   135
 72
   136
 73
   127
  0
VERTEX
  8
12PIA05-MAIN
  5
6BD0
 10
0.0
 20
0.0
 30
0.0
 70
   128
 71
   136
 72
   137
 73
   127
  0
VERTEX
  8
12PIA05-MAIN
  5
6BD1
 10
0.0
 20
0.0
 30
0.0
 70
   128
 71
   137
 72
   138
 73
   127
  0
VERTEX
  8
12PIA05-MAIN
  5
6BD2
 10
0.0
 20
0.0
 30
0.0
 70
   128
 71
   139
 72
   140
 73
   141
  0
VERTEX
  8
12PIA05-MAIN
  5
6BD3
 10
0.0
 20
0.0
 30
0.0
 70
   128
 71
   140
 72
   142
 73
   141
  0
VERTEX
  8
12PIA05-MAIN
  5
6BD4
 10
0.0
 20
0.0
 30
0.0
 70
   128
 71
   142
 72
   143
 73
   141
  0
VERTEX
  8
12PIA05-MAIN
  5
6BD5
 10
0.0
 20
0.0
 30
0.0
 70
   128
 71
   143
 72
   144
 73
   141
  0
VERTEX
  8
12PIA05-MAIN
  5
6BD6
 10
0.0
 20
0.0
 30
0.0
 70
   128
 71
   144
 72
   145
 73
   141
  0
VERTEX
  8
12PIA05-MAIN
  5
6BD7
 10
0.0
 20
0.0
 30
0.0
 70
   128
 71
   145
 72
   146
 73
   141
  0
VERTEX
  8
12PIA05-MAIN
  5
6BD8
 10
0.0
 20
0.0
 30
0.0
 70
   128
 71
   146
 72
   147
 73
   141
  0
VERTEX
  8
12PIA05-MAIN
  5
6BD9
 10
0.0
 20
0.0
 30
0.0
 70
   128
 71
   147
 72
   148
 73
   141
  0
VERTEX
  8
12PIA05-MAIN
  5
6BDA
 10
0.0
 20
0.0
 30
0.0
 70
   128
 71
   148
 72
   149
 73
   141
  0
VERTEX
  8
12PIA05-MAIN
  5
6BDB
 10
0.0
 20
0.0
 30
0.0
 70
   128
 71
   149
 72
   150
 73
   141
  0
VERTEX
  8
12PIA05-MAIN
  5
6BDC
 10
0.0
 20
0.0
 30
0.0
 70
   128
 71
   150
 72
   151
 73
   141
  0
VERTEX
  8
12PIA05-MAIN
  5
6BDD
 10
0.0
 20
0.0
 30
0.0
 70
   128
 71
   151
 72
   152
 73
   141
  0
VERTEX
  8
12PIA05-MAIN
  5
6BDE
 10
0.0
 20
0.0
 30
0.0
 70
   128
 71
   152
 72
   153
 73
   141
  0
VERTEX
  8
12PIA05-MAIN
  5
6BDF
 10
0.0
 20
0.0
 30
0.0
 70
   128
 71
   153
 72
   154
 73
   141
  0
VERTEX
  8
12PIA05-MAIN
  5
6BE0
 10
0.0
 20
0.0
 30
0.0
 70
   128
 71
   154
 72
   155
 73
   141
  0
VERTEX
  8
12PIA05-MAIN
  5
6BE1
 10
0.0
 20
0.0
 30
0.0
 70
   128
 71
   155
 72
   156
 73
   141
  0
VERTEX
  8
12PIA05-MAIN
  5
6BE2
 10
0.0
 20
0.0
 30
0.0
 70
   128
 71
   156
 72
   157
 73
   141
  0
VERTEX
  8
12PIA05-MAIN
  5
6BE3
 10
0.0
 20
0.0
 30
0.0
 70
   128
 71
   157
 72
   158
 73
   141
  0
VERTEX
  8
12PIA05-MAIN
  5
6BE4
 10
0.0
 20
0.0
 30
0.0
 70
   128
 71
   158
 72
   159
 73
   141
  0
VERTEX
  8
12PIA05-MAIN
  5
6BE5
 10
0.0
 20
0.0
 30
0.0
 70
   128
 71
   159
 72
   139
 73
   141
  0
VERTEX
  8
12PIA05-MAIN
  5
6BE6
 10
0.0
 20
0.0
 30
0.0
 70
   128
 71
   160
 72
   161
 73
   162
  0
VERTEX
  8
12PIA05-MAIN
  5
6BE7
 10
0.0
 20
0.0
 30
0.0
 70
   128
 71
   161
 72
   163
 73
   162
  0
VERTEX
  8
12PIA05-MAIN
  5
6BE8
 10
0.0
 20
0.0
 30
0.0
 70
   128
 71
   163
 72
   164
 73
   162
  0
VERTEX
  8
12PIA05-MAIN
  5
6BE9
 10
0.0
 20
0.0
 30
0.0
 70
   128
 71
   164
 72
   165
 73
   162
  0
VERTEX
  8
12PIA05-MAIN
  5
6BEA
 10
0.0
 20
0.0
 30
0.0
 70
   128
 71
   165
 72
   166
 73
   162
  0
VERTEX
  8
12PIA05-MAIN
  5
6BEB
 10
0.0
 20
0.0
 30
0.0
 70
   128
 71
   166
 72
   167
 73
   162
  0
VERTEX
  8
12PIA05-MAIN
  5
6BEC
 10
0.0
 20
0.0
 30
0.0
 70
   128
 71
   167
 72
   168
 73
   162
  0
VERTEX
  8
12PIA05-MAIN
  5
6BED
 10
0.0
 20
0.0
 30
0.0
 70
   128
 71
   168
 72
   169
 73
   162
  0
VERTEX
  8
12PIA05-MAIN
  5
6BEE
 10
0.0
 20
0.0
 30
0.0
 70
   128
 71
   169
 72
   170
 73
   162
  0
VERTEX
  8
12PIA05-MAIN
  5
6BEF
 10
0.0
 20
0.0
 30
0.0
 70
   128
 71
   170
 72
   171
 73
   162
  0
VERTEX
  8
12PIA05-MAIN
  5
6BF0
 10
0.0
 20
0.0
 30
0.0
 70
   128
 71
   171
 72
   172
 73
   162
  0
VERTEX
  8
12PIA05-MAIN
  5
6BF1
 10
0.0
 20
0.0
 30
0.0
 70
   128
 71
   172
 72
   173
 73
   162
  0
VERTEX
  8
12PIA05-MAIN
  5
6BF2
 10
0.0
 20
0.0
 30
0.0
 70
   128
 71
   173
 72
   174
 73
   162
  0
VERTEX
  8
12PIA05-MAIN
  5
6BF3
 10
0.0
 20
0.0
 30
0.0
 70
   128
 71
   174
 72
   175
 73
   162
  0
VERTEX
  8
12PIA05-MAIN
  5
6BF4
 10
0.0
 20
0.0
 30
0.0
 70
   128
 71
   175
 72
   176
 73
   162
  0
VERTEX
  8
12PIA05-MAIN
  5
6BF5
 10
0.0
 20
0.0
 30
0.0
 70
   128
 71
   176
 72
   177
 73
   162
  0
VERTEX
  8
12PIA05-MAIN
  5
6BF6
 10
0.0
 20
0.0
 30
0.0
 70
   128
 71
   177
 72
   178
 73
   162
  0
VERTEX
  8
12PIA05-MAIN
  5
6BF7
 10
0.0
 20
0.0
 30
0.0
 70
   128
 71
   178
 72
   179
 73
   162
  0
VERTEX
  8
12PIA05-MAIN
  5
6BF8
 10
0.0
 20
0.0
 30
0.0
 70
   128
 71
   179
 72
   180
 73
   162
  0
VERTEX
  8
12PIA05-MAIN
  5
6BF9
 10
0.0
 20
0.0
 30
0.0
 70
   128
 71
   180
 72
   160
 73
   162
  0
SEQEND
  8
12PIA05-MAIN
  5
6BFA
  0
POLYLINE
  8
12PIA05-MAIN
  5
6BFB
 66
     1
 10
0.0
 20
0.0
 30
0.0
 70
    64
 71
   116
 72
   105
1001
AVE_ENTITY_MATERIAL
1002
{
1000

1002
{
1071
        0
1070
     0
1070
     0
1002
{
1070
     0
1070
     0
1070
     0
1040
0.0
1002
}
1070
     0
1070
     0
1002
{
1002
}
1002
}
1002
{
1002
}
1002
{
1002
}
1011
0.0
1021
0.0
1031
0.0
1011
1.0
1021
0.0
1031
0.0
1011
0.0
1021
1.0
1031
0.0
1011
0.0
1021
0.0
1031
1.0
1002
}
1001
AVE_FINISH
1002
{
1070
     0
1005
6CDA
1002
}
  0
VERTEX
  8
12PIA05-MAIN
  5
6BFC
 10
50.788
 20
27.527
 30
5.77
 70
   192
  0
VERTEX
  8
12PIA05-MAIN
  5
6BFD
 10
50.788
 20
27.682
 30
4.504
 70
   192
  0
VERTEX
  8
12PIA05-MAIN
  5
6BFE
 10
50.788
 20
30.266
 30
4.298
 70
   192
  0
VERTEX
  8
12PIA05-MAIN
  5
6BFF
 10
50.788
 20
29.774
 30
1.836
 70
   192
  0
VERTEX
  8
12PIA05-MAIN
  5
6C00
 10
50.788
 20
27.373
 30
7.034
 70
   192
  0
VERTEX
  8
12PIA05-MAIN
  5
6C01
 10
50.788
 20
29.836
 30
6.18
 70
   192
  0
VERTEX
  8
12PIA05-MAIN
  5
6C02
 10
50.788
 20
27.312
 30
8.813
 70
   192
  0
VERTEX
  8
12PIA05-MAIN
  5
6C03
 10
50.788
 20
29.405
 30
8.06
 70
   192
  0
VERTEX
  8
12PIA05-MAIN
  5
6C04
 10
50.788
 20
27.25
 30
10.591
 70
   192
  0
VERTEX
  8
12PIA05-MAIN
  5
6C05
 10
50.788
 20
29.159
 30
10.147
 70
   192
  0
VERTEX
  8
12PIA05-MAIN
  5
6C06
 10
50.788
 20
27.188
 30
12.37
 70
   192
  0
VERTEX
  8
12PIA05-MAIN
  5
6C07
 10
50.788
 20
28.913
 30
12.233
 70
   192
  0
VERTEX
  8
12PIA05-MAIN
  5
6C08
 10
50.788
 20
27.232
 30
13.796
 70
   192
  0
VERTEX
  8
12PIA05-MAIN
  5
6C09
 10
50.788
 20
28.954
 30
14.216
 70
   192
  0
VERTEX
  8
12PIA05-MAIN
  5
6C0A
 10
50.788
 20
27.275
 30
15.223
 70
   192
  0
VERTEX
  8
12PIA05-MAIN
  5
6C0B
 10
50.788
 20
28.994
 30
16.2
 70
   192
  0
VERTEX
  8
12PIA05-MAIN
  5
6C0C
 10
50.788
 20
27.318
 30
16.65
 70
   192
  0
VERTEX
  8
12PIA05-MAIN
  5
6C0D
 10
50.788
 20
29.035
 30
18.184
 70
   192
  0
VERTEX
  8
12PIA05-MAIN
  5
6C0E
 10
50.788
 20
27.361
 30
18.076
 70
   192
  0
VERTEX
  8
12PIA05-MAIN
  5
6C0F
 10
50.788
 20
29.558
 30
20.27
 70
   192
  0
VERTEX
  8
12PIA05-MAIN
  5
6C10
 10
50.788
 20
27.404
 30
19.502
 70
   192
  0
VERTEX
  8
12PIA05-MAIN
  5
6C11
 10
50.788
 20
30.082
 30
22.356
 70
   192
  0
VERTEX
  8
12PIA05-MAIN
  5
6C12
 10
50.788
 20
27.448
 30
20.929
 70
   192
  0
VERTEX
  8
12PIA05-MAIN
  5
6C13
 10
50.788
 20
31.436
 30
23.587
 70
   192
  0
VERTEX
  8
12PIA05-MAIN
  5
6C14
 10
50.788
 20
27.491
 30
22.356
 70
   192
  0
VERTEX
  8
12PIA05-MAIN
  5
6C15
 10
50.788
 20
31.498
 30
25.982
 70
   192
  0
VERTEX
  8
12PIA05-MAIN
  5
6C16
 10
49.481
 20
27.529
 30
5.77
 70
   192
  0
VERTEX
  8
12PIA05-MAIN
  5
6C17
 10
49.481
 20
27.683
 30
4.504
 70
   192
  0
VERTEX
  8
12PIA05-MAIN
  5
6C18
 10
49.481
 20
30.268
 30
4.298
 70
   192
  0
VERTEX
  8
12PIA05-MAIN
  5
6C19
 10
49.481
 20
29.776
 30
1.836
 70
   192
  0
VERTEX
  8
12PIA05-MAIN
  5
6C1A
 10
49.481
 20
27.374
 30
7.034
 70
   192
  0
VERTEX
  8
12PIA05-MAIN
  5
6C1B
 10
49.481
 20
29.837
 30
6.18
 70
   192
  0
VERTEX
  8
12PIA05-MAIN
  5
6C1C
 10
49.481
 20
27.313
 30
8.813
 70
   192
  0
VERTEX
  8
12PIA05-MAIN
  5
6C1D
 10
49.481
 20
29.406
 30
8.06
 70
   192
  0
VERTEX
  8
12PIA05-MAIN
  5
6C1E
 10
49.481
 20
27.251
 30
10.591
 70
   192
  0
VERTEX
  8
12PIA05-MAIN
  5
6C1F
 10
49.481
 20
29.16
 30
10.147
 70
   192
  0
VERTEX
  8
12PIA05-MAIN
  5
6C20
 10
49.481
 20
27.19
 30
12.37
 70
   192
  0
VERTEX
  8
12PIA05-MAIN
  5
6C21
 10
49.481
 20
28.914
 30
12.233
 70
   192
  0
VERTEX
  8
12PIA05-MAIN
  5
6C22
 10
49.481
 20
27.233
 30
13.796
 70
   192
  0
VERTEX
  8
12PIA05-MAIN
  5
6C23
 10
49.481
 20
28.955
 30
14.216
 70
   192
  0
VERTEX
  8
12PIA05-MAIN
  5
6C24
 10
49.481
 20
27.276
 30
15.223
 70
   192
  0
VERTEX
  8
12PIA05-MAIN
  5
6C25
 10
49.481
 20
28.996
 30
16.2
 70
   192
  0
VERTEX
  8
12PIA05-MAIN
  5
6C26
 10
49.481
 20
27.319
 30
16.65
 70
   192
  0
VERTEX
  8
12PIA05-MAIN
  5
6C27
 10
49.481
 20
29.036
 30
18.184
 70
   192
  0
VERTEX
  8
12PIA05-MAIN
  5
6C28
 10
49.481
 20
27.362
 30
18.076
 70
   192
  0
VERTEX
  8
12PIA05-MAIN
  5
6C29
 10
49.481
 20
29.56
 30
20.27
 70
   192
  0
VERTEX
  8
12PIA05-MAIN
  5
6C2A
 10
49.481
 20
27.406
 30
19.502
 70
   192
  0
VERTEX
  8
12PIA05-MAIN
  5
6C2B
 10
49.481
 20
30.083
 30
22.356
 70
   192
  0
VERTEX
  8
12PIA05-MAIN
  5
6C2C
 10
49.481
 20
27.449
 30
20.929
 70
   192
  0
VERTEX
  8
12PIA05-MAIN
  5
6C2D
 10
49.481
 20
31.438
 30
23.587
 70
   192
  0
VERTEX
  8
12PIA05-MAIN
  5
6C2E
 10
49.481
 20
27.492
 30
22.356
 70
   192
  0
VERTEX
  8
12PIA05-MAIN
  5
6C2F
 10
49.481
 20
31.499
 30
25.982
 70
   192
  0
VERTEX
  8
12PIA05-MAIN
  5
6C30
 10
50.788
 20
22.262
 30
4.504
 70
   192
  0
VERTEX
  8
12PIA05-MAIN
  5
6C31
 10
50.788
 20
22.416
 30
5.768
 70
   192
  0
VERTEX
  8
12PIA05-MAIN
  5
6C32
 10
50.788
 20
19.678
 30
4.298
 70
   192
  0
VERTEX
  8
12PIA05-MAIN
  5
6C33
 10
50.788
 20
20.17
 30
1.836
 70
   192
  0
VERTEX
  8
12PIA05-MAIN
  5
6C34
 10
50.788
 20
22.571
 30
7.034
 70
   192
  0
VERTEX
  8
12PIA05-MAIN
  5
6C35
 10
50.788
 20
20.108
 30
6.179
 70
   192
  0
VERTEX
  8
12PIA05-MAIN
  5
6C36
 10
50.788
 20
22.632
 30
8.813
 70
   192
  0
VERTEX
  8
12PIA05-MAIN
  5
6C37
 10
50.788
 20
20.539
 30
8.06
 70
   192
  0
VERTEX
  8
12PIA05-MAIN
  5
6C38
 10
50.788
 20
22.694
 30
10.591
 70
   192
  0
VERTEX
  8
12PIA05-MAIN
  5
6C39
 10
50.788
 20
20.785
 30
10.146
 70
   192
  0
VERTEX
  8
12PIA05-MAIN
  5
6C3A
 10
50.788
 20
22.756
 30
12.37
 70
   192
  0
VERTEX
  8
12PIA05-MAIN
  5
6C3B
 10
50.788
 20
21.031
 30
12.233
 70
   192
  0
VERTEX
  8
12PIA05-MAIN
  5
6C3C
 10
50.788
 20
22.712
 30
13.796
 70
   192
  0
VERTEX
  8
12PIA05-MAIN
  5
6C3D
 10
50.788
 20
20.99
 30
14.216
 70
   192
  0
VERTEX
  8
12PIA05-MAIN
  5
6C3E
 10
50.788
 20
22.669
 30
15.223
 70
   192
  0
VERTEX
  8
12PIA05-MAIN
  5
6C3F
 10
50.788
 20
20.95
 30
16.2
 70
   192
  0
VERTEX
  8
12PIA05-MAIN
  5
6C40
 10
50.788
 20
22.626
 30
16.65
 70
   192
  0
VERTEX
  8
12PIA05-MAIN
  5
6C41
 10
50.788
 20
20.909
 30
18.184
 70
   192
  0
VERTEX
  8
12PIA05-MAIN
  5
6C42
 10
50.788
 20
22.583
 30
18.076
 70
   192
  0
VERTEX
  8
12PIA05-MAIN
  5
6C43
 10
50.788
 20
20.386
 30
20.27
 70
   192
  0
VERTEX
  8
12PIA05-MAIN
  5
6C44
 10
50.788
 20
22.54
 30
19.502
 70
   192
  0
VERTEX
  8
12PIA05-MAIN
  5
6C45
 10
50.788
 20
19.862
 30
22.356
 70
   192
  0
VERTEX
  8
12PIA05-MAIN
  5
6C46
 10
50.788
 20
22.496
 30
20.929
 70
   192
  0
VERTEX
  8
12PIA05-MAIN
  5
6C47
 10
50.788
 20
18.508
 30
23.587
 70
   192
  0
VERTEX
  8
12PIA05-MAIN
  5
6C48
 10
50.788
 20
22.453
 30
22.356
 70
   192
  0
VERTEX
  8
12PIA05-MAIN
  5
6C49
 10
50.788
 20
18.446
 30
25.982
 70
   192
  0
VERTEX
  8
12PIA05-MAIN
  5
6C4A
 10
49.481
 20
22.264
 30
4.504
 70
   192
  0
VERTEX
  8
12PIA05-MAIN
  5
6C4B
 10
49.481
 20
22.417
 30
5.77
 70
   192
  0
VERTEX
  8
12PIA05-MAIN
  5
6C4C
 10
49.481
 20
19.679
 30
4.298
 70
   192
  0
VERTEX
  8
12PIA05-MAIN
  5
6C4D
 10
49.481
 20
20.171
 30
1.836
 70
   192
  0
VERTEX
  8
12PIA05-MAIN
  5
6C4E
 10
49.481
 20
22.572
 30
7.034
 70
   192
  0
VERTEX
  8
12PIA05-MAIN
  5
6C4F
 10
49.481
 20
20.11
 30
6.18
 70
   192
  0
VERTEX
  8
12PIA05-MAIN
  5
6C50
 10
49.481
 20
22.633
 30
8.813
 70
   192
  0
VERTEX
  8
12PIA05-MAIN
  5
6C51
 10
49.481
 20
20.54
 30
8.06
 70
   192
  0
VERTEX
  8
12PIA05-MAIN
  5
6C52
 10
49.481
 20
22.696
 30
10.591
 70
   192
  0
VERTEX
  8
12PIA05-MAIN
  5
6C53
 10
49.481
 20
20.786
 30
10.147
 70
   192
  0
VERTEX
  8
12PIA05-MAIN
  5
6C54
 10
49.481
 20
22.757
 30
12.37
 70
   192
  0
VERTEX
  8
12PIA05-MAIN
  5
6C55
 10
49.481
 20
21.032
 30
12.233
 70
   192
  0
VERTEX
  8
12PIA05-MAIN
  5
6C56
 10
49.481
 20
22.714
 30
13.796
 70
   192
  0
VERTEX
  8
12PIA05-MAIN
  5
6C57
 10
49.481
 20
20.992
 30
14.216
 70
   192
  0
VERTEX
  8
12PIA05-MAIN
  5
6C58
 10
49.481
 20
22.67
 30
15.223
 70
   192
  0
VERTEX
  8
12PIA05-MAIN
  5
6C59
 10
49.481
 20
20.951
 30
16.2
 70
   192
  0
VERTEX
  8
12PIA05-MAIN
  5
6C5A
 10
49.481
 20
22.627
 30
16.65
 70
   192
  0
VERTEX
  8
12PIA05-MAIN
  5
6C5B
 10
49.481
 20
20.91
 30
18.184
 70
   192
  0
VERTEX
  8
12PIA05-MAIN
  5
6C5C
 10
49.481
 20
22.584
 30
18.076
 70
   192
  0
VERTEX
  8
12PIA05-MAIN
  5
6C5D
 10
49.481
 20
20.387
 30
20.27
 70
   192
  0
VERTEX
  8
12PIA05-MAIN
  5
6C5E
 10
49.481
 20
22.541
 30
19.502
 70
   192
  0
VERTEX
  8
12PIA05-MAIN
  5
6C5F
 10
49.481
 20
19.864
 30
22.356
 70
   192
  0
VERTEX
  8
12PIA05-MAIN
  5
6C60
 10
49.481
 20
22.498
 30
20.929
 70
   192
  0
VERTEX
  8
12PIA05-MAIN
  5
6C61
 10
49.481
 20
18.509
 30
23.587
 70
   192
  0
VERTEX
  8
12PIA05-MAIN
  5
6C62
 10
49.481
 20
22.454
 30
22.356
 70
   192
  0
VERTEX
  8
12PIA05-MAIN
  5
6C63
 10
49.481
 20
18.448
 30
25.982
 70
   192
  0
VERTEX
  8
12PIA05-MAIN
  5
6C64
 10
50.788
 20
24.132
 30
22.356
 70
   192
  0
VERTEX
  8
12PIA05-MAIN
  5
6C65
 10
50.788
 20
24.024
 30
3.478
 70
   192
  0
VERTEX
  8
12PIA05-MAIN
  5
6C66
 10
50.788
 20
24.972
 30
22.356
 70
   192
  0
VERTEX
  8
12PIA05-MAIN
  5
6C67
 10
50.788
 20
25.813
 30
22.356
 70
   192
  0
VERTEX
  8
12PIA05-MAIN
  5
6C68
 10
50.788
 20
24.973
 30
22.356
 70
   192
  0
VERTEX
  8
12PIA05-MAIN
  5
6C69
 10
50.788
 20
25.92
 30
3.478
 70
   192
  0
VERTEX
  8
12PIA05-MAIN
  5
6C6A
 10
49.481
 20
24.133
 30
22.356
 70
   192
  0
VERTEX
  8
12PIA05-MAIN
  5
6C6B
 10
49.481
 20
24.025
 30
3.478
 70
   192
  0
VERTEX
  8
12PIA05-MAIN
  5
6C6C
 10
49.481
 20
24.973
 30
22.356
 70
   192
  0
VERTEX
  8
12PIA05-MAIN
  5
6C6D
 10
49.481
 20
25.921
 30
3.478
 70
   192
  0
VERTEX
  8
12PIA05-MAIN
  5
6C6E
 10
49.481
 20
25.814
 30
22.356
 70
   192
  0
VERTEX
  8
12PIA05-MAIN
  5
6C6F
 10
49.481
 20
24.974
 30
22.356
 70
   192
  0
VERTEX
  8
12PIA05-MAIN
  5
6C70
 10
0.0
 20
0.0
 30
0.0
 70
   128
 71
     1
 72
    -2
 73
     3
  0
VERTEX
  8
12PIA05-MAIN
  5
6C71
 10
0.0
 20
0.0
 30
0.0
 70
   128
 71
     4
 72
    -3
 73
     2
  0
VERTEX
  8
12PIA05-MAIN
  5
6C72
 10
0.0
 20
0.0
 30
0.0
 70
   128
 71
     5
 72
    -1
 73
     6
  0
VERTEX
  8
12PIA05-MAIN
  5
6C73
 10
0.0
 20
0.0
 30
0.0
 70
   128
 71
     3
 72
    -6
 73
     1
  0
VERTEX
  8
12PIA05-MAIN
  5
6C74
 10
0.0
 20
0.0
 30
0.0
 70
   128
 71
     7
 72
    -5
 73
     8
  0
VERTEX
  8
12PIA05-MAIN
  5
6C75
 10
0.0
 20
0.0
 30
0.0
 70
   128
 71
     6
 72
    -8
 73
     5
  0
VERTEX
  8
12PIA05-MAIN
  5
6C76
 10
0.0
 20
0.0
 30
0.0
 70
   128
 71
     9
 72
    -7
 73
    10
  0
VERTEX
  8
12PIA05-MAIN
  5
6C77
 10
0.0
 20
0.0
 30
0.0
 70
   128
 71
     8
 72
   -10
 73
     7
  0
VERTEX
  8
12PIA05-MAIN
  5
6C78
 10
0.0
 20
0.0
 30
0.0
 70
   128
 71
    11
 72
    -9
 73
    12
  0
VERTEX
  8
12PIA05-MAIN
  5
6C79
 10
0.0
 20
0.0
 30
0.0
 70
   128
 71
    10
 72
   -12
 73
     9
  0
VERTEX
  8
12PIA05-MAIN
  5
6C7A
 10
0.0
 20
0.0
 30
0.0
 70
   128
 71
    13
 72
   -11
 73
    14
  0
VERTEX
  8
12PIA05-MAIN
  5
6C7B
 10
0.0
 20
0.0
 30
0.0
 70
   128
 71
    12
 72
   -14
 73
    11
  0
VERTEX
  8
12PIA05-MAIN
  5
6C7C
 10
0.0
 20
0.0
 30
0.0
 70
   128
 71
    15
 72
   -13
 73
    16
  0
VERTEX
  8
12PIA05-MAIN
  5
6C7D
 10
0.0
 20
0.0
 30
0.0
 70
   128
 71
    14
 72
   -16
 73
    13
  0
VERTEX
  8
12PIA05-MAIN
  5
6C7E
 10
0.0
 20
0.0
 30
0.0
 70
   128
 71
    17
 72
   -15
 73
    18
  0
VERTEX
  8
12PIA05-MAIN
  5
6C7F
 10
0.0
 20
0.0
 30
0.0
 70
   128
 71
    16
 72
   -18
 73
    15
  0
VERTEX
  8
12PIA05-MAIN
  5
6C80
 10
0.0
 20
0.0
 30
0.0
 70
   128
 71
    19
 72
   -17
 73
    20
  0
VERTEX
  8
12PIA05-MAIN
  5
6C81
 10
0.0
 20
0.0
 30
0.0
 70
   128
 71
    18
 72
   -20
 73
    17
  0
VERTEX
  8
12PIA05-MAIN
  5
6C82
 10
0.0
 20
0.0
 30
0.0
 70
   128
 71
    21
 72
   -19
 73
    22
  0
VERTEX
  8
12PIA05-MAIN
  5
6C83
 10
0.0
 20
0.0
 30
0.0
 70
   128
 71
    20
 72
   -22
 73
    19
  0
VERTEX
  8
12PIA05-MAIN
  5
6C84
 10
0.0
 20
0.0
 30
0.0
 70
   128
 71
   -23
 72
    22
 73
    24
  0
VERTEX
  8
12PIA05-MAIN
  5
6C85
 10
0.0
 20
0.0
 30
0.0
 70
   128
 71
    21
 72
   -22
 73
    23
  0
VERTEX
  8
12PIA05-MAIN
  5
6C86
 10
0.0
 20
0.0
 30
0.0
 70
   128
 71
    25
 72
   -23
 73
    26
  0
VERTEX
  8
12PIA05-MAIN
  5
6C87
 10
0.0
 20
0.0
 30
0.0
 70
   128
 71
    24
 72
   -26
 73
    23
  0
VERTEX
  8
12PIA05-MAIN
  5
6C88
 10
0.0
 20
0.0
 30
0.0
 70
   128
 71
    27
 72
   -28
 73
    29
  0
VERTEX
  8
12PIA05-MAIN
  5
6C89
 10
0.0
 20
0.0
 30
0.0
 70
   128
 71
    30
 72
   -29
 73
    28
  0
VERTEX
  8
12PIA05-MAIN
  5
6C8A
 10
0.0
 20
0.0
 30
0.0
 70
   128
 71
    31
 72
   -27
 73
    32
  0
VERTEX
  8
12PIA05-MAIN
  5
6C8B
 10
0.0
 20
0.0
 30
0.0
 70
   128
 71
    29
 72
   -32
 73
    27
  0
VERTEX
  8
12PIA05-MAIN
  5
6C8C
 10
0.0
 20
0.0
 30
0.0
 70
   128
 71
    33
 72
   -31
 73
    34
  0
VERTEX
  8
12PIA05-MAIN
  5
6C8D
 10
0.0
 20
0.0
 30
0.0
 70
   128
 71
    32
 72
   -34
 73
    31
  0
VERTEX
  8
12PIA05-MAIN
  5
6C8E
 10
0.0
 20
0.0
 30
0.0
 70
   128
 71
    35
 72
   -33
 73
    36
  0
VERTEX
  8
12PIA05-MAIN
  5
6C8F
 10
0.0
 20
0.0
 30
0.0
 70
   128
 71
    34
 72
   -36
 73
    33
  0
VERTEX
  8
12PIA05-MAIN
  5
6C90
 10
0.0
 20
0.0
 30
0.0
 70
   128
 71
    37
 72
   -35
 73
    38
  0
VERTEX
  8
12PIA05-MAIN
  5
6C91
 10
0.0
 20
0.0
 30
0.0
 70
   128
 71
    36
 72
   -38
 73
    35
  0
VERTEX
  8
12PIA05-MAIN
  5
6C92
 10
0.0
 20
0.0
 30
0.0
 70
   128
 71
    39
 72
   -37
 73
    40
  0
VERTEX
  8
12PIA05-MAIN
  5
6C93
 10
0.0
 20
0.0
 30
0.0
 70
   128
 71
    38
 72
   -40
 73
    37
  0
VERTEX
  8
12PIA05-MAIN
  5
6C94
 10
0.0
 20
0.0
 30
0.0
 70
   128
 71
    41
 72
   -39
 73
    42
  0
VERTEX
  8
12PIA05-MAIN
  5
6C95
 10
0.0
 20
0.0
 30
0.0
 70
   128
 71
    40
 72
   -42
 73
    39
  0
VERTEX
  8
12PIA05-MAIN
  5
6C96
 10
0.0
 20
0.0
 30
0.0
 70
   128
 71
    43
 72
   -41
 73
    44
  0
VERTEX
  8
12PIA05-MAIN
  5
6C97
 10
0.0
 20
0.0
 30
0.0
 70
   128
 71
    42
 72
   -44
 73
    41
  0
VERTEX
  8
12PIA05-MAIN
  5
6C98
 10
0.0
 20
0.0
 30
0.0
 70
   128
 71
    45
 72
   -43
 73
    46
  0
VERTEX
  8
12PIA05-MAIN
  5
6C99
 10
0.0
 20
0.0
 30
0.0
 70
   128
 71
    44
 72
   -46
 73
    43
  0
VERTEX
  8
12PIA05-MAIN
  5
6C9A
 10
0.0
 20
0.0
 30
0.0
 70
   128
 71
    47
 72
   -45
 73
    48
  0
VERTEX
  8
12PIA05-MAIN
  5
6C9B
 10
0.0
 20
0.0
 30
0.0
 70
   128
 71
    46
 72
   -48
 73
    45
  0
VERTEX
  8
12PIA05-MAIN
  5
6C9C
 10
0.0
 20
0.0
 30
0.0
 70
   128
 71
   -49
 72
    48
 73
    50
  0
VERTEX
  8
12PIA05-MAIN
  5
6C9D
 10
0.0
 20
0.0
 30
0.0
 70
   128
 71
    47
 72
   -48
 73
    49
  0
VERTEX
  8
12PIA05-MAIN
  5
6C9E
 10
0.0
 20
0.0
 30
0.0
 70
   128
 71
    51
 72
   -49
 73
    52
  0
VERTEX
  8
12PIA05-MAIN
  5
6C9F
 10
0.0
 20
0.0
 30
0.0
 70
   128
 71
    50
 72
   -52
 73
    49
  0
VERTEX
  8
12PIA05-MAIN
  5
6CA0
 10
0.0
 20
0.0
 30
0.0
 70
   128
 71
    53
 72
    54
 73
   -55
  0
VERTEX
  8
12PIA05-MAIN
  5
6CA1
 10
0.0
 20
0.0
 30
0.0
 70
   128
 71
    55
 72
    56
 73
   -53
  0
VERTEX
  8
12PIA05-MAIN
  5
6CA2
 10
0.0
 20
0.0
 30
0.0
 70
   128
 71
    54
 72
    57
 73
   -58
  0
VERTEX
  8
12PIA05-MAIN
  5
6CA3
 10
0.0
 20
0.0
 30
0.0
 70
   128
 71
    58
 72
    55
 73
   -54
  0
VERTEX
  8
12PIA05-MAIN
  5
6CA4
 10
0.0
 20
0.0
 30
0.0
 70
   128
 71
    57
 72
    59
 73
   -60
  0
VERTEX
  8
12PIA05-MAIN
  5
6CA5
 10
0.0
 20
0.0
 30
0.0
 70
   128
 71
    60
 72
    58
 73
   -57
  0
VERTEX
  8
12PIA05-MAIN
  5
6CA6
 10
0.0
 20
0.0
 30
0.0
 70
   128
 71
    59
 72
    61
 73
   -62
  0
VERTEX
  8
12PIA05-MAIN
  5
6CA7
 10
0.0
 20
0.0
 30
0.0
 70
   128
 71
    62
 72
    60
 73
   -59
  0
VERTEX
  8
12PIA05-MAIN
  5
6CA8
 10
0.0
 20
0.0
 30
0.0
 70
   128
 71
    61
 72
    63
 73
   -64
  0
VERTEX
  8
12PIA05-MAIN
  5
6CA9
 10
0.0
 20
0.0
 30
0.0
 70
   128
 71
    64
 72
    62
 73
   -61
  0
VERTEX
  8
12PIA05-MAIN
  5
6CAA
 10
0.0
 20
0.0
 30
0.0
 70
   128
 71
    63
 72
    65
 73
   -66
  0
VERTEX
  8
12PIA05-MAIN
  5
6CAB
 10
0.0
 20
0.0
 30
0.0
 70
   128
 71
    66
 72
    64
 73
   -63
  0
VERTEX
  8
12PIA05-MAIN
  5
6CAC
 10
0.0
 20
0.0
 30
0.0
 70
   128
 71
    65
 72
    67
 73
   -68
  0
VERTEX
  8
12PIA05-MAIN
  5
6CAD
 10
0.0
 20
0.0
 30
0.0
 70
   128
 71
    68
 72
    66
 73
   -65
  0
VERTEX
  8
12PIA05-MAIN
  5
6CAE
 10
0.0
 20
0.0
 30
0.0
 70
   128
 71
    67
 72
    69
 73
   -70
  0
VERTEX
  8
12PIA05-MAIN
  5
6CAF
 10
0.0
 20
0.0
 30
0.0
 70
   128
 71
    70
 72
    68
 73
   -67
  0
VERTEX
  8
12PIA05-MAIN
  5
6CB0
 10
0.0
 20
0.0
 30
0.0
 70
   128
 71
    69
 72
    71
 73
   -72
  0
VERTEX
  8
12PIA05-MAIN
  5
6CB1
 10
0.0
 20
0.0
 30
0.0
 70
   128
 71
    72
 72
    70
 73
   -69
  0
VERTEX
  8
12PIA05-MAIN
  5
6CB2
 10
0.0
 20
0.0
 30
0.0
 70
   128
 71
    71
 72
    73
 73
   -74
  0
VERTEX
  8
12PIA05-MAIN
  5
6CB3
 10
0.0
 20
0.0
 30
0.0
 70
   128
 71
    74
 72
    72
 73
   -71
  0
VERTEX
  8
12PIA05-MAIN
  5
6CB4
 10
0.0
 20
0.0
 30
0.0
 70
   128
 71
   -74
 72
    75
 73
    76
  0
VERTEX
  8
12PIA05-MAIN
  5
6CB5
 10
0.0
 20
0.0
 30
0.0
 70
   128
 71
    74
 72
    73
 73
   -75
  0
VERTEX
  8
12PIA05-MAIN
  5
6CB6
 10
0.0
 20
0.0
 30
0.0
 70
   128
 71
    75
 72
    77
 73
   -78
  0
VERTEX
  8
12PIA05-MAIN
  5
6CB7
 10
0.0
 20
0.0
 30
0.0
 70
   128
 71
    78
 72
    76
 73
   -75
  0
VERTEX
  8
12PIA05-MAIN
  5
6CB8
 10
0.0
 20
0.0
 30
0.0
 70
   128
 71
    79
 72
    80
 73
   -81
  0
VERTEX
  8
12PIA05-MAIN
  5
6CB9
 10
0.0
 20
0.0
 30
0.0
 70
   128
 71
    81
 72
    82
 73
   -79
  0
VERTEX
  8
12PIA05-MAIN
  5
6CBA
 10
0.0
 20
0.0
 30
0.0
 70
   128
 71
    80
 72
    83
 73
   -84
  0
VERTEX
  8
12PIA05-MAIN
  5
6CBB
 10
0.0
 20
0.0
 30
0.0
 70
   128
 71
    84
 72
    81
 73
   -80
  0
VERTEX
  8
12PIA05-MAIN
  5
6CBC
 10
0.0
 20
0.0
 30
0.0
 70
   128
 71
    83
 72
    85
 73
   -86
  0
VERTEX
  8
12PIA05-MAIN
  5
6CBD
 10
0.0
 20
0.0
 30
0.0
 70
   128
 71
    86
 72
    84
 73
   -83
  0
VERTEX
  8
12PIA05-MAIN
  5
6CBE
 10
0.0
 20
0.0
 30
0.0
 70
   128
 71
    85
 72
    87
 73
   -88
  0
VERTEX
  8
12PIA05-MAIN
  5
6CBF
 10
0.0
 20
0.0
 30
0.0
 70
   128
 71
    88
 72
    86
 73
   -85
  0
VERTEX
  8
12PIA05-MAIN
  5
6CC0
 10
0.0
 20
0.0
 30
0.0
 70
   128
 71
    87
 72
    89
 73
   -90
  0
VERTEX
  8
12PIA05-MAIN
  5
6CC1
 10
0.0
 20
0.0
 30
0.0
 70
   128
 71
    90
 72
    88
 73
   -87
  0
VERTEX
  8
12PIA05-MAIN
  5
6CC2
 10
0.0
 20
0.0
 30
0.0
 70
   128
 71
    89
 72
    91
 73
   -92
  0
VERTEX
  8
12PIA05-MAIN
  5
6CC3
 10
0.0
 20
0.0
 30
0.0
 70
   128
 71
    92
 72
    90
 73
   -89
  0
VERTEX
  8
12PIA05-MAIN
  5
6CC4
 10
0.0
 20
0.0
 30
0.0
 70
   128
 71
    91
 72
    93
 73
   -94
  0
VERTEX
  8
12PIA05-MAIN
  5
6CC5
 10
0.0
 20
0.0
 30
0.0
 70
   128
 71
    94
 72
    92
 73
   -91
  0
VERTEX
  8
12PIA05-MAIN
  5
6CC6
 10
0.0
 20
0.0
 30
0.0
 70
   128
 71
    93
 72
    95
 73
   -96
  0
VERTEX
  8
12PIA05-MAIN
  5
6CC7
 10
0.0
 20
0.0
 30
0.0
 70
   128
 71
    96
 72
    94
 73
   -93
  0
VERTEX
  8
12PIA05-MAIN
  5
6CC8
 10
0.0
 20
0.0
 30
0.0
 70
   128
 71
    95
 72
    97
 73
   -98
  0
VERTEX
  8
12PIA05-MAIN
  5
6CC9
 10
0.0
 20
0.0
 30
0.0
 70
   128
 71
    98
 72
    96
 73
   -95
  0
VERTEX
  8
12PIA05-MAIN
  5
6CCA
 10
0.0
 20
0.0
 30
0.0
 70
   128
 71
    97
 72
    99
 73
  -100
  0
VERTEX
  8
12PIA05-MAIN
  5
6CCB
 10
0.0
 20
0.0
 30
0.0
 70
   128
 71
   100
 72
    98
 73
   -97
  0
VERTEX
  8
12PIA05-MAIN
  5
6CCC
 10
0.0
 20
0.0
 30
0.0
 70
   128
 71
  -100
 72
   101
 73
   102
  0
VERTEX
  8
12PIA05-MAIN
  5
6CCD
 10
0.0
 20
0.0
 30
0.0
 70
   128
 71
   100
 72
    99
 73
  -101
  0
VERTEX
  8
12PIA05-MAIN
  5
6CCE
 10
0.0
 20
0.0
 30
0.0
 70
   128
 71
   101
 72
   103
 73
  -104
  0
VERTEX
  8
12PIA05-MAIN
  5
6CCF
 10
0.0
 20
0.0
 30
0.0
 70
   128
 71
   104
 72
   102
 73
  -101
  0
VERTEX
  8
12PIA05-MAIN
  5
6CD0
 10
0.0
 20
0.0
 30
0.0
 70
   128
 71
   105
 72
   106
 73
   107
  0
VERTEX
  8
12PIA05-MAIN
  5
6CD1
 10
0.0
 20
0.0
 30
0.0
 70
   128
 71
  -108
 72
   109
 73
   110
  0
VERTEX
  8
12PIA05-MAIN
  5
6CD2
 10
0.0
 20
0.0
 30
0.0
 70
   128
 71
   108
 72
   107
 73
  -109
  0
VERTEX
  8
12PIA05-MAIN
  5
6CD3
 10
0.0
 20
0.0
 30
0.0
 70
   128
 71
   109
 72
   107
 73
  -106
  0
VERTEX
  8
12PIA05-MAIN
  5
6CD4
 10
0.0
 20
0.0
 30
0.0
 70
   128
 71
   106
 72
   110
 73
  -109
  0
VERTEX
  8
12PIA05-MAIN
  5
6CD5
 10
0.0
 20
0.0
 30
0.0
 70
   128
 71
   111
 72
   112
 73
   113
  0
VERTEX
  8
12PIA05-MAIN
  5
6CD6
 10
0.0
 20
0.0
 30
0.0
 70
   128
 71
   114
 72
   115
 73
   116
  0
VERTEX
  8
12PIA05-MAIN
  5
6CD7
 10
0.0
 20
0.0
 30
0.0
 70
   128
 71
   116
 72
   113
 73
  -112
  0
VERTEX
  8
12PIA05-MAIN
  5
6CD8
 10
0.0
 20
0.0
 30
0.0
 70
   128
 71
   112
 72
   114
 73
  -116
  0
SEQEND
  8
12PIA05-MAIN
  5
6CD9
  0
POLYLINE
  8
12PIA05-MAIN
  5
6CF3
 66
     1
 10
0.0
 20
0.0
 30
0.0
 70
    64
 71
   116
 72
   104
1001
AVE_ENTITY_MATERIAL
1002
{
1000

1002
{
1071
        0
1070
     0
1070
     0
1002
{
1070
     0
1070
     0
1070
     0
1040
0.0
1002
}
1070
     0
1070
     0
1002
{
1002
}
1002
}
1002
{
1002
}
1002
{
1002
}
1011
0.0
1021
0.0
1031
0.0
1011
1.0
1021
0.0
1031
0.0
1011
0.0
1021
1.0
1031
0.0
1011
0.0
1021
0.0
1031
1.0
1002
}
1001
AVE_FINISH
1002
{
1070
     0
1005
670E
1002
}
  0
VERTEX
  8
12PIA05-MAIN
  5
6CF4
 10
50.788
 20
25.92
 30
3.478
 70
   192
  0
VERTEX
  8
12PIA05-MAIN
  5
6CF5
 10
49.481
 20
25.814
 30
22.356
 70
   192
  0
VERTEX
  8
12PIA05-MAIN
  5
6CF6
 10
49.481
 20
25.922
 30
3.478
 70
   192
  0
VERTEX
  8
12PIA05-MAIN
  5
6CF7
 10
50.788
 20
25.812
 30
22.356
 70
   192
  0
VERTEX
  8
12PIA05-MAIN
  5
6CF8
 10
49.481
 20
27.53
 30
5.77
 70
   192
  0
VERTEX
  8
12PIA05-MAIN
  5
6CF9
 10
50.788
 20
27.682
 30
4.504
 70
   192
  0
VERTEX
  8
12PIA05-MAIN
  5
6CFA
 10
50.788
 20
27.527
 30
5.77
 70
   192
  0
VERTEX
  8
12PIA05-MAIN
  5
6CFB
 10
49.481
 20
27.684
 30
4.504
 70
   192
  0
VERTEX
  8
12PIA05-MAIN
  5
6CFC
 10
49.481
 20
27.376
 30
7.034
 70
   192
  0
VERTEX
  8
12PIA05-MAIN
  5
6CFD
 10
50.788
 20
27.373
 30
7.034
 70
   192
  0
VERTEX
  8
12PIA05-MAIN
  5
6CFE
 10
50.788
 20
27.312
 30
8.813
 70
   192
  0
VERTEX
  8
12PIA05-MAIN
  5
6CFF
 10
49.481
 20
27.314
 30
8.813
 70
   192
  0
VERTEX
  8
12PIA05-MAIN
  5
6D00
 10
50.788
 20
27.25
 30
10.591
 70
   192
  0
VERTEX
  8
12PIA05-MAIN
  5
6D01
 10
49.481
 20
27.252
 30
10.591
 70
   192
  0
VERTEX
  8
12PIA05-MAIN
  5
6D02
 10
50.788
 20
27.188
 30
12.37
 70
   192
  0
VERTEX
  8
12PIA05-MAIN
  5
6D03
 10
49.481
 20
27.191
 30
12.37
 70
   192
  0
VERTEX
  8
12PIA05-MAIN
  5
6D04
 10
50.788
 20
27.232
 30
13.796
 70
   192
  0
VERTEX
  8
12PIA05-MAIN
  5
6D05
 10
49.481
 20
27.234
 30
13.796
 70
   192
  0
VERTEX
  8
12PIA05-MAIN
  5
6D06
 10
50.788
 20
27.275
 30
15.223
 70
   192
  0
VERTEX
  8
12PIA05-MAIN
  5
6D07
 10
49.481
 20
27.277
 30
15.223
 70
   192
  0
VERTEX
  8
12PIA05-MAIN
  5
6D08
 10
50.788
 20
27.318
 30
16.65
 70
   192
  0
VERTEX
  8
12PIA05-MAIN
  5
6D09
 10
49.481
 20
27.32
 30
16.65
 70
   192
  0
VERTEX
  8
12PIA05-MAIN
  5
6D0A
 10
50.788
 20
27.361
 30
18.076
 70
   192
  0
VERTEX
  8
12PIA05-MAIN
  5
6D0B
 10
49.481
 20
27.364
 30
18.076
 70
   192
  0
VERTEX
  8
12PIA05-MAIN
  5
6D0C
 10
50.788
 20
27.404
 30
19.502
 70
   192
  0
VERTEX
  8
12PIA05-MAIN
  5
6D0D
 10
49.481
 20
27.407
 30
19.502
 70
   192
  0
VERTEX
  8
12PIA05-MAIN
  5
6D0E
 10
50.788
 20
27.448
 30
20.929
 70
   192
  0
VERTEX
  8
12PIA05-MAIN
  5
6D0F
 10
49.481
 20
27.45
 30
20.929
 70
   192
  0
VERTEX
  8
12PIA05-MAIN
  5
6D10
 10
50.788
 20
27.491
 30
22.356
 70
   192
  0
VERTEX
  8
12PIA05-MAIN
  5
6D11
 10
49.481
 20
27.493
 30
22.356
 70
   192
  0
VERTEX
  8
12PIA05-MAIN
  5
6D12
 10
50.788
 20
24.023
 30
3.478
 70
   192
  0
VERTEX
  8
12PIA05-MAIN
  5
6D13
 10
50.788
 20
24.131
 30
22.356
 70
   192
  0
VERTEX
  8
12PIA05-MAIN
  5
6D14
 10
49.481
 20
24.025
 30
3.478
 70
   192
  0
VERTEX
  8
12PIA05-MAIN
  5
6D15
 10
49.481
 20
24.133
 30
22.356
 70
   192
  0
VERTEX
  8
12PIA05-MAIN
  5
6D16
 10
49.481
 20
22.264
 30
4.504
 70
   192
  0
VERTEX
  8
12PIA05-MAIN
  5
6D17
 10
50.788
 20
22.415
 30
5.77
 70
   192
  0
VERTEX
  8
12PIA05-MAIN
  5
6D18
 10
49.481
 20
22.417
 30
5.77
 70
   192
  0
VERTEX
  8
12PIA05-MAIN
  5
6D19
 10
50.788
 20
22.261
 30
4.504
 70
   192
  0
VERTEX
  8
12PIA05-MAIN
  5
6D1A
 10
50.788
 20
22.57
 30
7.034
 70
   192
  0
VERTEX
  8
12PIA05-MAIN
  5
6D1B
 10
49.481
 20
22.572
 30
7.034
 70
   192
  0
VERTEX
  8
12PIA05-MAIN
  5
6D1C
 10
50.788
 20
22.631
 30
8.813
 70
   192
  0
VERTEX
  8
12PIA05-MAIN
  5
6D1D
 10
49.481
 20
22.633
 30
8.813
 70
   192
  0
VERTEX
  8
12PIA05-MAIN
  5
6D1E
 10
50.788
 20
22.693
 30
10.591
 70
   192
  0
VERTEX
  8
12PIA05-MAIN
  5
6D1F
 10
49.481
 20
22.696
 30
10.591
 70
   192
  0
VERTEX
  8
12PIA05-MAIN
  5
6D20
 10
50.788
 20
22.754
 30
12.37
 70
   192
  0
VERTEX
  8
12PIA05-MAIN
  5
6D21
 10
49.481
 20
22.757
 30
12.37
 70
   192
  0
VERTEX
  8
12PIA05-MAIN
  5
6D22
 10
50.788
 20
22.711
 30
13.796
 70
   192
  0
VERTEX
  8
12PIA05-MAIN
  5
6D23
 10
49.481
 20
22.714
 30
13.796
 70
   192
  0
VERTEX
  8
12PIA05-MAIN
  5
6D24
 10
50.788
 20
22.668
 30
15.223
 70
   192
  0
VERTEX
  8
12PIA05-MAIN
  5
6D25
 10
49.481
 20
22.67
 30
15.223
 70
   192
  0
VERTEX
  8
12PIA05-MAIN
  5
6D26
 10
50.788
 20
22.625
 30
16.65
 70
   192
  0
VERTEX
  8
12PIA05-MAIN
  5
6D27
 10
49.481
 20
22.627
 30
16.65
 70
   192
  0
VERTEX
  8
12PIA05-MAIN
  5
6D28
 10
50.788
 20
22.582
 30
18.076
 70
   192
  0
VERTEX
  8
12PIA05-MAIN
  5
6D29
 10
49.481
 20
22.584
 30
18.076
 70
   192
  0
VERTEX
  8
12PIA05-MAIN
  5
6D2A
 10
50.788
 20
22.538
 30
19.502
 70
   192
  0
VERTEX
  8
12PIA05-MAIN
  5
6D2B
 10
49.481
 20
22.541
 30
19.502
 70
   192
  0
VERTEX
  8
12PIA05-MAIN
  5
6D2C
 10
50.788
 20
22.495
 30
20.929
 70
   192
  0
VERTEX
  8
12PIA05-MAIN
  5
6D2D
 10
49.481
 20
22.498
 30
20.929
 70
   192
  0
VERTEX
  8
12PIA05-MAIN
  5
6D2E
 10
50.788
 20
22.452
 30
22.356
 70
   192
  0
VERTEX
  8
12PIA05-MAIN
  5
6D2F
 10
49.481
 20
22.454
 30
22.356
 70
   192
  0
VERTEX
  8
12PIA05-MAIN
  5
6D30
 10
50.788
 20
18.506
 30
23.587
 70
   192
  0
VERTEX
  8
12PIA05-MAIN
  5
6D31
 10
50.788
 20
18.445
 30
25.982
 70
   192
  0
VERTEX
  8
12PIA05-MAIN
  5
6D32
 10
49.481
 20
18.509
 30
23.587
 70
   192
  0
VERTEX
  8
12PIA05-MAIN
  5
6D33
 10
49.481
 20
18.448
 30
25.982
 70
   192
  0
VERTEX
  8
12PIA05-MAIN
  5
6D34
 10
50.788
 20
19.861
 30
22.356
 70
   192
  0
VERTEX
  8
12PIA05-MAIN
  5
6D35
 10
49.481
 20
19.864
 30
22.356
 70
   192
  0
VERTEX
  8
12PIA05-MAIN
  5
6D36
 10
50.788
 20
20.384
 30
20.27
 70
   192
  0
VERTEX
  8
12PIA05-MAIN
  5
6D37
 10
49.481
 20
20.387
 30
20.27
 70
   192
  0
VERTEX
  8
12PIA05-MAIN
  5
6D38
 10
50.788
 20
20.908
 30
18.184
 70
   192
  0
VERTEX
  8
12PIA05-MAIN
  5
6D39
 10
49.481
 20
20.91
 30
18.184
 70
   192
  0
VERTEX
  8
12PIA05-MAIN
  5
6D3A
 10
50.788
 20
20.948
 30
16.2
 70
   192
  0
VERTEX
  8
12PIA05-MAIN
  5
6D3B
 10
49.481
 20
20.951
 30
16.2
 70
   192
  0
VERTEX
  8
12PIA05-MAIN
  5
6D3C
 10
50.788
 20
20.989
 30
14.216
 70
   192
  0
VERTEX
  8
12PIA05-MAIN
  5
6D3D
 10
49.481
 20
20.992
 30
14.216
 70
   192
  0
VERTEX
  8
12PIA05-MAIN
  5
6D3E
 10
50.788
 20
21.03
 30
12.233
 70
   192
  0
VERTEX
  8
12PIA05-MAIN
  5
6D3F
 10
49.481
 20
21.032
 30
12.233
 70
   192
  0
VERTEX
  8
12PIA05-MAIN
  5
6D40
 10
50.788
 20
20.784
 30
10.147
 70
   192
  0
VERTEX
  8
12PIA05-MAIN
  5
6D41
 10
49.481
 20
20.786
 30
10.147
 70
   192
  0
VERTEX
  8
12PIA05-MAIN
  5
6D42
 10
50.788
 20
20.538
 30
8.06
 70
   192
  0
VERTEX
  8
12PIA05-MAIN
  5
6D43
 10
49.481
 20
20.54
 30
8.06
 70
   192
  0
VERTEX
  8
12PIA05-MAIN
  5
6D44
 10
50.788
 20
20.107
 30
6.18
 70
   192
  0
VERTEX
  8
12PIA05-MAIN
  5
6D45
 10
49.481
 20
20.11
 30
6.18
 70
   192
  0
VERTEX
  8
12PIA05-MAIN
  5
6D46
 10
50.788
 20
19.676
 30
4.298
 70
   192
  0
VERTEX
  8
12PIA05-MAIN
  5
6D47
 10
49.481
 20
19.679
 30
4.298
 70
   192
  0
VERTEX
  8
12PIA05-MAIN
  5
6D48
 10
50.788
 20
20.168
 30
1.836
 70
   192
  0
VERTEX
  8
12PIA05-MAIN
  5
6D49
 10
49.481
 20
20.171
 30
1.836
 70
   192
  0
VERTEX
  8
12PIA05-MAIN
  5
6D4A
 10
50.788
 20
21.4
 30
0.673
 70
   192
  0
VERTEX
  8
12PIA05-MAIN
  5
6D4B
 10
49.481
 20
21.402
 30
0.673
 70
   192
  0
VERTEX
  8
12PIA05-MAIN
  5
6D4C
 10
50.788
 20
31.436
 30
23.587
 70
   192
  0
VERTEX
  8
12PIA05-MAIN
  5
6D4D
 10
50.788
 20
31.498
 30
25.982
 70
   192
  0
VERTEX
  8
12PIA05-MAIN
  5
6D4E
 10
49.481
 20
31.439
 30
23.587
 70
   192
  0
VERTEX
  8
12PIA05-MAIN
  5
6D4F
 10
49.481
 20
31.5
 30
25.982
 70
   192
  0
VERTEX
  8
12PIA05-MAIN
  5
6D50
 10
50.788
 20
30.082
 30
22.356
 70
   192
  0
VERTEX
  8
12PIA05-MAIN
  5
6D51
 10
49.481
 20
30.084
 30
22.356
 70
   192
  0
VERTEX
  8
12PIA05-MAIN
  5
6D52
 10
50.788
 20
29.558
 30
20.27
 70
   192
  0
VERTEX
  8
12PIA05-MAIN
  5
6D53
 10
49.481
 20
29.561
 30
20.27
 70
   192
  0
VERTEX
  8
12PIA05-MAIN
  5
6D54
 10
50.788
 20
29.035
 30
18.184
 70
   192
  0
VERTEX
  8
12PIA05-MAIN
  5
6D55
 10
49.481
 20
29.038
 30
18.184
 70
   192
  0
VERTEX
  8
12PIA05-MAIN
  5
6D56
 10
50.788
 20
28.994
 30
16.2
 70
   192
  0
VERTEX
  8
12PIA05-MAIN
  5
6D57
 10
49.481
 20
28.997
 30
16.2
 70
   192
  0
VERTEX
  8
12PIA05-MAIN
  5
6D58
 10
50.788
 20
28.954
 30
14.216
 70
   192
  0
VERTEX
  8
12PIA05-MAIN
  5
6D59
 10
49.481
 20
28.956
 30
14.216
 70
   192
  0
VERTEX
  8
12PIA05-MAIN
  5
6D5A
 10
50.788
 20
28.913
 30
12.233
 70
   192
  0
VERTEX
  8
12PIA05-MAIN
  5
6D5B
 10
49.481
 20
28.915
 30
12.233
 70
   192
  0
VERTEX
  8
12PIA05-MAIN
  5
6D5C
 10
50.788
 20
29.159
 30
10.147
 70
   192
  0
VERTEX
  8
12PIA05-MAIN
  5
6D5D
 10
49.481
 20
29.161
 30
10.147
 70
   192
  0
VERTEX
  8
12PIA05-MAIN
  5
6D5E
 10
50.788
 20
29.405
 30
8.06
 70
   192
  0
VERTEX
  8
12PIA05-MAIN
  5
6D5F
 10
49.481
 20
29.407
 30
8.06
 70
   192
  0
VERTEX
  8
12PIA05-MAIN
  5
6D60
 10
50.788
 20
29.836
 30
6.18
 70
   192
  0
VERTEX
  8
12PIA05-MAIN
  5
6D61
 10
49.481
 20
29.838
 30
6.18
 70
   192
  0
VERTEX
  8
12PIA05-MAIN
  5
6D62
 10
50.788
 20
30.266
 30
4.298
 70
   192
  0
VERTEX
  8
12PIA05-MAIN
  5
6D63
 10
49.481
 20
30.269
 30
4.298
 70
   192
  0
VERTEX
  8
12PIA05-MAIN
  5
6D64
 10
50.788
 20
29.774
 30
1.836
 70
   192
  0
VERTEX
  8
12PIA05-MAIN
  5
6D65
 10
49.481
 20
29.777
 30
1.836
 70
   192
  0
VERTEX
  8
12PIA05-MAIN
  5
6D66
 10
50.788
 20
28.543
 30
0.673
 70
   192
  0
VERTEX
  8
12PIA05-MAIN
  5
6D67
 10
49.481
 20
28.546
 30
0.673
 70
   192
  0
VERTEX
  8
12PIA05-MAIN
  5
6D68
 10
0.0
 20
0.0
 30
0.0
 70
   128
 71
    -1
 72
     2
 73
     3
  0
VERTEX
  8
12PIA05-MAIN
  5
6D69
 10
0.0
 20
0.0
 30
0.0
 70
   128
 71
     4
 72
    -2
 73
     1
  0
VERTEX
  8
12PIA05-MAIN
  5
6D6A
 10
0.0
 20
0.0
 30
0.0
 70
   128
 71
    -5
 72
     6
 73
     7
  0
VERTEX
  8
12PIA05-MAIN
  5
6D6B
 10
0.0
 20
0.0
 30
0.0
 70
   128
 71
     5
 72
     8
 73
    -6
  0
VERTEX
  8
12PIA05-MAIN
  5
6D6C
 10
0.0
 20
0.0
 30
0.0
 70
   128
 71
    -9
 72
     7
 73
    10
  0
VERTEX
  8
12PIA05-MAIN
  5
6D6D
 10
0.0
 20
0.0
 30
0.0
 70
   128
 71
     9
 72
     5
 73
    -7
  0
VERTEX
  8
12PIA05-MAIN
  5
6D6E
 10
0.0
 20
0.0
 30
0.0
 70
   128
 71
    -9
 72
    11
 73
    12
  0
VERTEX
  8
12PIA05-MAIN
  5
6D6F
 10
0.0
 20
0.0
 30
0.0
 70
   128
 71
     9
 72
    10
 73
   -11
  0
VERTEX
  8
12PIA05-MAIN
  5
6D70
 10
0.0
 20
0.0
 30
0.0
 70
   128
 71
   -12
 72
    13
 73
    14
  0
VERTEX
  8
12PIA05-MAIN
  5
6D71
 10
0.0
 20
0.0
 30
0.0
 70
   128
 71
    12
 72
    11
 73
   -13
  0
VERTEX
  8
12PIA05-MAIN
  5
6D72
 10
0.0
 20
0.0
 30
0.0
 70
   128
 71
    13
 72
    15
 73
   -16
  0
VERTEX
  8
12PIA05-MAIN
  5
6D73
 10
0.0
 20
0.0
 30
0.0
 70
   128
 71
    16
 72
    14
 73
   -13
  0
VERTEX
  8
12PIA05-MAIN
  5
6D74
 10
0.0
 20
0.0
 30
0.0
 70
   128
 71
    15
 72
    17
 73
   -18
  0
VERTEX
  8
12PIA05-MAIN
  5
6D75
 10
0.0
 20
0.0
 30
0.0
 70
   128
 71
    18
 72
    16
 73
   -15
  0
VERTEX
  8
12PIA05-MAIN
  5
6D76
 10
0.0
 20
0.0
 30
0.0
 70
   128
 71
   -18
 72
    19
 73
    20
  0
VERTEX
  8
12PIA05-MAIN
  5
6D77
 10
0.0
 20
0.0
 30
0.0
 70
   128
 71
    18
 72
    17
 73
   -19
  0
VERTEX
  8
12PIA05-MAIN
  5
6D78
 10
0.0
 20
0.0
 30
0.0
 70
   128
 71
    19
 72
    21
 73
   -22
  0
VERTEX
  8
12PIA05-MAIN
  5
6D79
 10
0.0
 20
0.0
 30
0.0
 70
   128
 71
    22
 72
    20
 73
   -19
  0
VERTEX
  8
12PIA05-MAIN
  5
6D7A
 10
0.0
 20
0.0
 30
0.0
 70
   128
 71
   -22
 72
    23
 73
    24
  0
VERTEX
  8
12PIA05-MAIN
  5
6D7B
 10
0.0
 20
0.0
 30
0.0
 70
   128
 71
    22
 72
    21
 73
   -23
  0
VERTEX
  8
12PIA05-MAIN
  5
6D7C
 10
0.0
 20
0.0
 30
0.0
 70
   128
 71
   -24
 72
    25
 73
    26
  0
VERTEX
  8
12PIA05-MAIN
  5
6D7D
 10
0.0
 20
0.0
 30
0.0
 70
   128
 71
    24
 72
    23
 73
   -25
  0
VERTEX
  8
12PIA05-MAIN
  5
6D7E
 10
0.0
 20
0.0
 30
0.0
 70
   128
 71
   -26
 72
    27
 73
    28
  0
VERTEX
  8
12PIA05-MAIN
  5
6D7F
 10
0.0
 20
0.0
 30
0.0
 70
   128
 71
    26
 72
    25
 73
   -27
  0
VERTEX
  8
12PIA05-MAIN
  5
6D80
 10
0.0
 20
0.0
 30
0.0
 70
   128
 71
    27
 72
    29
 73
   -30
  0
VERTEX
  8
12PIA05-MAIN
  5
6D81
 10
0.0
 20
0.0
 30
0.0
 70
   128
 71
    30
 72
    28
 73
   -27
  0
VERTEX
  8
12PIA05-MAIN
  5
6D82
 10
0.0
 20
0.0
 30
0.0
 70
   128
 71
    31
 72
   -32
 73
    33
  0
VERTEX
  8
12PIA05-MAIN
  5
6D83
 10
0.0
 20
0.0
 30
0.0
 70
   128
 71
    34
 72
   -33
 73
    32
  0
VERTEX
  8
12PIA05-MAIN
  5
6D84
 10
0.0
 20
0.0
 30
0.0
 70
   128
 71
   -35
 72
    36
 73
    37
  0
VERTEX
  8
12PIA05-MAIN
  5
6D85
 10
0.0
 20
0.0
 30
0.0
 70
   128
 71
    35
 72
    38
 73
   -36
  0
VERTEX
  8
12PIA05-MAIN
  5
6D86
 10
0.0
 20
0.0
 30
0.0
 70
   128
 71
    36
 72
    39
 73
   -40
  0
VERTEX
  8
12PIA05-MAIN
  5
6D87
 10
0.0
 20
0.0
 30
0.0
 70
   128
 71
    40
 72
    37
 73
   -36
  0
VERTEX
  8
12PIA05-MAIN
  5
6D88
 10
0.0
 20
0.0
 30
0.0
 70
   128
 71
    39
 72
    41
 73
   -42
  0
VERTEX
  8
12PIA05-MAIN
  5
6D89
 10
0.0
 20
0.0
 30
0.0
 70
   128
 71
    42
 72
    40
 73
   -39
  0
VERTEX
  8
12PIA05-MAIN
  5
6D8A
 10
0.0
 20
0.0
 30
0.0
 70
   128
 71
    41
 72
    43
 73
   -44
  0
VERTEX
  8
12PIA05-MAIN
  5
6D8B
 10
0.0
 20
0.0
 30
0.0
 70
   128
 71
    44
 72
    42
 73
   -41
  0
VERTEX
  8
12PIA05-MAIN
  5
6D8C
 10
0.0
 20
0.0
 30
0.0
 70
   128
 71
    43
 72
    45
 73
   -46
  0
VERTEX
  8
12PIA05-MAIN
  5
6D8D
 10
0.0
 20
0.0
 30
0.0
 70
   128
 71
    46
 72
    44
 73
   -43
  0
VERTEX
  8
12PIA05-MAIN
  5
6D8E
 10
0.0
 20
0.0
 30
0.0
 70
   128
 71
   -46
 72
    47
 73
    48
  0
VERTEX
  8
12PIA05-MAIN
  5
6D8F
 10
0.0
 20
0.0
 30
0.0
 70
   128
 71
    46
 72
    45
 73
   -47
  0
VERTEX
  8
12PIA05-MAIN
  5
6D90
 10
0.0
 20
0.0
 30
0.0
 70
   128
 71
   -48
 72
    49
 73
    50
  0
VERTEX
  8
12PIA05-MAIN
  5
6D91
 10
0.0
 20
0.0
 30
0.0
 70
   128
 71
    48
 72
    47
 73
   -49
  0
VERTEX
  8
12PIA05-MAIN
  5
6D92
 10
0.0
 20
0.0
 30
0.0
 70
   128
 71
    49
 72
    51
 73
   -52
  0
VERTEX
  8
12PIA05-MAIN
  5
6D93
 10
0.0
 20
0.0
 30
0.0
 70
   128
 71
    52
 72
    50
 73
   -49
  0
VERTEX
  8
12PIA05-MAIN
  5
6D94
 10
0.0
 20
0.0
 30
0.0
 70
   128
 71
    51
 72
    53
 73
   -54
  0
VERTEX
  8
12PIA05-MAIN
  5
6D95
 10
0.0
 20
0.0
 30
0.0
 70
   128
 71
    54
 72
    52
 73
   -51
  0
VERTEX
  8
12PIA05-MAIN
  5
6D96
 10
0.0
 20
0.0
 30
0.0
 70
   128
 71
   -54
 72
    55
 73
    56
  0
VERTEX
  8
12PIA05-MAIN
  5
6D97
 10
0.0
 20
0.0
 30
0.0
 70
   128
 71
    54
 72
    53
 73
   -55
  0
VERTEX
  8
12PIA05-MAIN
  5
6D98
 10
0.0
 20
0.0
 30
0.0
 70
   128
 71
   -56
 72
    57
 73
    58
  0
VERTEX
  8
12PIA05-MAIN
  5
6D99
 10
0.0
 20
0.0
 30
0.0
 70
   128
 71
    56
 72
    55
 73
   -57
  0
VERTEX
  8
12PIA05-MAIN
  5
6D9A
 10
0.0
 20
0.0
 30
0.0
 70
   128
 71
   -58
 72
    59
 73
    60
  0
VERTEX
  8
12PIA05-MAIN
  5
6D9B
 10
0.0
 20
0.0
 30
0.0
 70
   128
 71
    58
 72
    57
 73
   -59
  0
VERTEX
  8
12PIA05-MAIN
  5
6D9C
 10
0.0
 20
0.0
 30
0.0
 70
   128
 71
    61
 72
   -62
 73
    63
  0
VERTEX
  8
12PIA05-MAIN
  5
6D9D
 10
0.0
 20
0.0
 30
0.0
 70
   128
 71
    64
 72
   -63
 73
    62
  0
VERTEX
  8
12PIA05-MAIN
  5
6D9E
 10
0.0
 20
0.0
 30
0.0
 70
   128
 71
    65
 72
   -61
 73
    66
  0
VERTEX
  8
12PIA05-MAIN
  5
6D9F
 10
0.0
 20
0.0
 30
0.0
 70
   128
 71
    63
 72
   -66
 73
    61
  0
VERTEX
  8
12PIA05-MAIN
  5
6DA0
 10
0.0
 20
0.0
 30
0.0
 70
   128
 71
    67
 72
   -65
 73
    68
  0
VERTEX
  8
12PIA05-MAIN
  5
6DA1
 10
0.0
 20
0.0
 30
0.0
 70
   128
 71
    66
 72
   -68
 73
    65
  0
VERTEX
  8
12PIA05-MAIN
  5
6DA2
 10
0.0
 20
0.0
 30
0.0
 70
   128
 71
   -69
 72
    68
 73
    70
  0
VERTEX
  8
12PIA05-MAIN
  5
6DA3
 10
0.0
 20
0.0
 30
0.0
 70
   128
 71
    67
 72
   -68
 73
    69
  0
VERTEX
  8
12PIA05-MAIN
  5
6DA4
 10
0.0
 20
0.0
 30
0.0
 70
   128
 71
   -71
 72
    70
 73
    72
  0
VERTEX
  8
12PIA05-MAIN
  5
6DA5
 10
0.0
 20
0.0
 30
0.0
 70
   128
 71
    69
 72
   -70
 73
    71
  0
VERTEX
  8
12PIA05-MAIN
  5
6DA6
 10
0.0
 20
0.0
 30
0.0
 70
   128
 71
    73
 72
   -71
 73
    74
  0
VERTEX
  8
12PIA05-MAIN
  5
6DA7
 10
0.0
 20
0.0
 30
0.0
 70
   128
 71
    72
 72
   -74
 73
    71
  0
VERTEX
  8
12PIA05-MAIN
  5
6DA8
 10
0.0
 20
0.0
 30
0.0
 70
   128
 71
    75
 72
   -73
 73
    76
  0
VERTEX
  8
12PIA05-MAIN
  5
6DA9
 10
0.0
 20
0.0
 30
0.0
 70
   128
 71
    74
 72
   -76
 73
    73
  0
VERTEX
  8
12PIA05-MAIN
  5
6DAA
 10
0.0
 20
0.0
 30
0.0
 70
   128
 71
    77
 72
   -75
 73
    78
  0
VERTEX
  8
12PIA05-MAIN
  5
6DAB
 10
0.0
 20
0.0
 30
0.0
 70
   128
 71
    76
 72
   -78
 73
    75
  0
VERTEX
  8
12PIA05-MAIN
  5
6DAC
 10
0.0
 20
0.0
 30
0.0
 70
   128
 71
    79
 72
   -77
 73
    80
  0
VERTEX
  8
12PIA05-MAIN
  5
6DAD
 10
0.0
 20
0.0
 30
0.0
 70
   128
 71
    78
 72
   -80
 73
    77
  0
VERTEX
  8
12PIA05-MAIN
  5
6DAE
 10
0.0
 20
0.0
 30
0.0
 70
   128
 71
    81
 72
   -79
 73
    82
  0
VERTEX
  8
12PIA05-MAIN
  5
6DAF
 10
0.0
 20
0.0
 30
0.0
 70
   128
 71
    80
 72
   -82
 73
    79
  0
VERTEX
  8
12PIA05-MAIN
  5
6DB0
 10
0.0
 20
0.0
 30
0.0
 70
   128
 71
    83
 72
   -81
 73
    84
  0
VERTEX
  8
12PIA05-MAIN
  5
6DB1
 10
0.0
 20
0.0
 30
0.0
 70
   128
 71
    82
 72
   -84
 73
    81
  0
VERTEX
  8
12PIA05-MAIN
  5
6DB2
 10
0.0
 20
0.0
 30
0.0
 70
   128
 71
   -85
 72
    84
 73
    86
  0
VERTEX
  8
12PIA05-MAIN
  5
6DB3
 10
0.0
 20
0.0
 30
0.0
 70
   128
 71
    83
 72
   -84
 73
    85
  0
VERTEX
  8
12PIA05-MAIN
  5
6DB4
 10
0.0
 20
0.0
 30
0.0
 70
   128
 71
   -87
 72
    86
 73
    88
  0
VERTEX
  8
12PIA05-MAIN
  5
6DB5
 10
0.0
 20
0.0
 30
0.0
 70
   128
 71
    85
 72
   -86
 73
    87
  0
VERTEX
  8
12PIA05-MAIN
  5
6DB6
 10
0.0
 20
0.0
 30
0.0
 70
   128
 71
    89
 72
   -90
 73
    91
  0
VERTEX
  8
12PIA05-MAIN
  5
6DB7
 10
0.0
 20
0.0
 30
0.0
 70
   128
 71
    92
 72
   -91
 73
    90
  0
VERTEX
  8
12PIA05-MAIN
  5
6DB8
 10
0.0
 20
0.0
 30
0.0
 70
   128
 71
   -93
 72
    91
 73
    94
  0
VERTEX
  8
12PIA05-MAIN
  5
6DB9
 10
0.0
 20
0.0
 30
0.0
 70
   128
 71
    89
 72
   -91
 73
    93
  0
VERTEX
  8
12PIA05-MAIN
  5
6DBA
 10
0.0
 20
0.0
 30
0.0
 70
   128
 71
    95
 72
   -93
 73
    96
  0
VERTEX
  8
12PIA05-MAIN
  5
6DBB
 10
0.0
 20
0.0
 30
0.0
 70
   128
 71
    94
 72
   -96
 73
    93
  0
VERTEX
  8
12PIA05-MAIN
  5
6DBC
 10
0.0
 20
0.0
 30
0.0
 70
   128
 71
   -97
 72
    96
 73
    98
  0
VERTEX
  8
12PIA05-MAIN
  5
6DBD
 10
0.0
 20
0.0
 30
0.0
 70
   128
 71
    95
 72
   -96
 73
    97
  0
VERTEX
  8
12PIA05-MAIN
  5
6DBE
 10
0.0
 20
0.0
 30
0.0
 70
   128
 71
    99
 72
   -97
 73
   100
  0
VERTEX
  8
12PIA05-MAIN
  5
6DBF
 10
0.0
 20
0.0
 30
0.0
 70
   128
 71
    98
 72
  -100
 73
    97
  0
VERTEX
  8
12PIA05-MAIN
  5
6DC0
 10
0.0
 20
0.0
 30
0.0
 70
   128
 71
   101
 72
   -99
 73
   102
  0
VERTEX
  8
12PIA05-MAIN
  5
6DC1
 10
0.0
 20
0.0
 30
0.0
 70
   128
 71
   100
 72
  -102
 73
    99
  0
VERTEX
  8
12PIA05-MAIN
  5
6DC2
 10
0.0
 20
0.0
 30
0.0
 70
   128
 71
  -103
 72
   102
 73
   104
  0
VERTEX
  8
12PIA05-MAIN
  5
6DC3
 10
0.0
 20
0.0
 30
0.0
 70
   128
 71
   101
 72
  -102
 73
   103
  0
VERTEX
  8
12PIA05-MAIN
  5
6DC4
 10
0.0
 20
0.0
 30
0.0
 70
   128
 71
   105
 72
  -103
 73
   106
  0
VERTEX
  8
12PIA05-MAIN
  5
6DC5
 10
0.0
 20
0.0
 30
0.0
 70
   128
 71
   104
 72
  -106
 73
   103
  0
VERTEX
  8
12PIA05-MAIN
  5
6DC6
 10
0.0
 20
0.0
 30
0.0
 70
   128
 71
   107
 72
  -105
 73
   108
  0
VERTEX
  8
12PIA05-MAIN
  5
6DC7
 10
0.0
 20
0.0
 30
0.0
 70
   128
 71
   106
 72
  -108
 73
   105
  0
VERTEX
  8
12PIA05-MAIN
  5
6DC8
 10
0.0
 20
0.0
 30
0.0
 70
   128
 71
   109
 72
  -107
 73
   110
  0
VERTEX
  8
12PIA05-MAIN
  5
6DC9
 10
0.0
 20
0.0
 30
0.0
 70
   128
 71
   108
 72
  -110
 73
   107
  0
VERTEX
  8
12PIA05-MAIN
  5
6DCA
 10
0.0
 20
0.0
 30
0.0
 70
   128
 71
   111
 72
  -109
 73
   112
  0
VERTEX
  8
12PIA05-MAIN
  5
6DCB
 10
0.0
 20
0.0
 30
0.0
 70
   128
 71
   110
 72
  -112
 73
   109
  0
VERTEX
  8
12PIA05-MAIN
  5
6DCC
 10
0.0
 20
0.0
 30
0.0
 70
   128
 71
   113
 72
  -111
 73
   114
  0
VERTEX
  8
12PIA05-MAIN
  5
6DCD
 10
0.0
 20
0.0
 30
0.0
 70
   128
 71
   112
 72
  -114
 73
   111
  0
VERTEX
  8
12PIA05-MAIN
  5
6DCE
 10
0.0
 20
0.0
 30
0.0
 70
   128
 71
  -115
 72
   114
 73
   116
  0
VERTEX
  8
12PIA05-MAIN
  5
6DCF
 10
0.0
 20
0.0
 30
0.0
 70
   128
 71
   113
 72
  -114
 73
   115
  0
SEQEND
  8
12PIA05-MAIN
  5
6DD0
  0
POLYLINE
  8
12PIA05-MAIN
  5
6DD1
 66
     1
 10
0.0
 20
0.0
 30
0.0
 70
    64
 71
    70
 72
    60
1001
AVE_ENTITY_MATERIAL
1002
{
1000

1002
{
1071
        0
1070
     0
1070
     0
1002
{
1070
     0
1070
     0
1070
     0
1040
0.0
1002
}
1070
     0
1070
     0
1002
{
1002
}
1002
}
1002
{
1002
}
1002
{
1002
}
1011
0.0
1021
0.0
1031
0.0
1011
1.0
1021
0.0
1031
0.0
1011
0.0
1021
1.0
1031
0.0
1011
0.0
1021
0.0
1031
1.0
1002
}
1001
AVE_FINISH
1002
{
1070
     0
1005
65E1
1002
}
  0
VERTEX
  8
12PIA05-MAIN
  5
6DD2
 10
50.788
 20
27.682
 30
4.504
 70
   192
  0
VERTEX
  8
12PIA05-MAIN
  5
6DD3
 10
50.788
 20
25.92
 30
3.478
 70
   192
  0
VERTEX
  8
12PIA05-MAIN
  5
6DD4
 10
50.788
 20
29.774
 30
1.836
 70
   192
  0
VERTEX
  8
12PIA05-MAIN
  5
6DD5
 10
50.788
 20
28.543
 30
0.673
 70
   192
  0
VERTEX
  8
12PIA05-MAIN
  5
6DD6
 10
49.481
 20
27.683
 30
4.504
 70
   192
  0
VERTEX
  8
12PIA05-MAIN
  5
6DD7
 10
49.481
 20
25.921
 30
3.478
 70
   192
  0
VERTEX
  8
12PIA05-MAIN
  5
6DD8
 10
49.481
 20
29.776
 30
1.836
 70
   192
  0
VERTEX
  8
12PIA05-MAIN
  5
6DD9
 10
49.481
 20
28.544
 30
0.673
 70
   192
  0
VERTEX
  8
12PIA05-MAIN
  5
6DDA
 10
50.788
 20
24.024
 30
3.478
 70
   192
  0
VERTEX
  8
12PIA05-MAIN
  5
6DDB
 10
50.788
 20
22.262
 30
4.504
 70
   192
  0
VERTEX
  8
12PIA05-MAIN
  5
6DDC
 10
50.788
 20
20.17
 30
1.836
 70
   192
  0
VERTEX
  8
12PIA05-MAIN
  5
6DDD
 10
50.788
 20
21.401
 30
0.673
 70
   192
  0
VERTEX
  8
12PIA05-MAIN
  5
6DDE
 10
49.481
 20
24.025
 30
3.478
 70
   192
  0
VERTEX
  8
12PIA05-MAIN
  5
6DDF
 10
49.481
 20
22.264
 30
4.504
 70
   192
  0
VERTEX
  8
12PIA05-MAIN
  5
6DE0
 10
49.481
 20
20.171
 30
1.836
 70
   192
  0
VERTEX
  8
12PIA05-MAIN
  5
6DE1
 10
49.481
 20
21.402
 30
0.673
 70
   192
  0
VERTEX
  8
12PIA05-MAIN
  5
6DE2
 10
50.788
 20
24.972
 30
0.673
 70
   192
  0
VERTEX
  8
12PIA05-MAIN
  5
6DE3
 10
50.788
 20
18.446
 30
25.982
 70
   192
  0
VERTEX
  8
12PIA05-MAIN
  5
6DE4
 10
50.788
 20
22.453
 30
22.356
 70
   192
  0
VERTEX
  8
12PIA05-MAIN
  5
6DE5
 10
50.788
 20
24.972
 30
25.982
 70
   192
  0
VERTEX
  8
12PIA05-MAIN
  5
6DE6
 10
50.788
 20
27.491
 30
22.356
 70
   192
  0
VERTEX
  8
12PIA05-MAIN
  5
6DE7
 10
50.788
 20
31.498
 30
25.982
 70
   192
  0
VERTEX
  8
12PIA05-MAIN
  5
6DE8
 10
49.481
 20
24.973
 30
0.673
 70
   192
  0
VERTEX
  8
12PIA05-MAIN
  5
6DE9
 10
49.481
 20
18.448
 30
25.982
 70
   192
  0
VERTEX
  8
12PIA05-MAIN
  5
6DEA
 10
49.481
 20
22.454
 30
22.356
 70
   192
  0
VERTEX
  8
12PIA05-MAIN
  5
6DEB
 10
49.481
 20
24.973
 30
25.982
 70
   192
  0
VERTEX
  8
12PIA05-MAIN
  5
6DEC
 10
49.481
 20
27.492
 30
22.356
 70
   192
  0
VERTEX
  8
12PIA05-MAIN
  5
6DED
 10
49.481
 20
31.499
 30
25.982
 70
   192
  0
VERTEX
  8
12PIA05-MAIN
  5
6DEE
 10
-2.332
 20
15.566
 30
21.17
 70
   192
  0
VERTEX
  8
12PIA05-MAIN
  5
6DEF
 10
-2.332
 20
15.566
 30
22.184
 70
   192
  0
VERTEX
  8
12PIA05-MAIN
  5
6DF0
 10
-2.332
 20
13.519
 30
25.981
 70
   192
  0
VERTEX
  8
12PIA05-MAIN
  5
6DF1
 10
-2.332
 20
16.295
 30
22.249
 70
   192
  0
VERTEX
  8
12PIA05-MAIN
  5
6DF2
 10
-2.332
 20
16.789
 30
22.644
 70
   192
  0
VERTEX
  8
12PIA05-MAIN
  5
6DF3
 10
-2.332
 20
17.104
 30
23.635
 70
   192
  0
VERTEX
  8
12PIA05-MAIN
  5
6DF4
 10
-2.332
 20
17.412
 30
24.107
 70
   192
  0
VERTEX
  8
12PIA05-MAIN
  5
6DF5
 10
-2.332
 20
17.893
 30
24.462
 70
   192
  0
VERTEX
  8
12PIA05-MAIN
  5
6DF6
 10
-2.332
 20
19.385
 30
24.995
 70
   192
  0
VERTEX
  8
12PIA05-MAIN
  5
6DF7
 10
-2.332
 20
19.704
 30
25.331
 70
   192
  0
VERTEX
  8
12PIA05-MAIN
  5
6DF8
 10
-2.332
 20
19.885
 30
25.981
 70
   192
  0
VERTEX
  8
12PIA05-MAIN
  5
6DF9
 10
-2.332
 20
7.154
 30
25.981
 70
   192
  0
VERTEX
  8
12PIA05-MAIN
  5
6DFA
 10
-2.332
 20
7.334
 30
25.331
 70
   192
  0
VERTEX
  8
12PIA05-MAIN
  5
6DFB
 10
-2.332
 20
7.655
 30
24.995
 70
   192
  0
VERTEX
  8
12PIA05-MAIN
  5
6DFC
 10
-2.332
 20
9.146
 30
24.462
 70
   192
  0
VERTEX
  8
12PIA05-MAIN
  5
6DFD
 10
-2.332
 20
9.626
 30
24.107
 70
   192
  0
VERTEX
  8
12PIA05-MAIN
  5
6DFE
 10
-2.332
 20
9.936
 30
23.635
 70
   192
  0
VERTEX
  8
12PIA05-MAIN
  5
6DFF
 10
-2.332
 20
10.25
 30
22.644
 70
   192
  0
VERTEX
  8
12PIA05-MAIN
  5
6E00
 10
-2.332
 20
10.744
 30
22.249
 70
   192
  0
VERTEX
  8
12PIA05-MAIN
  5
6E01
 10
-2.332
 20
11.472
 30
22.184
 70
   192
  0
VERTEX
  8
12PIA05-MAIN
  5
6E02
 10
-2.332
 20
11.472
 30
21.17
 70
   192
  0
VERTEX
  8
12PIA05-MAIN
  5
6E03
 10
-5.632
 20
15.566
 30
21.17
 70
   192
  0
VERTEX
  8
12PIA05-MAIN
  5
6E04
 10
-5.632
 20
15.566
 30
22.184
 70
   192
  0
VERTEX
  8
12PIA05-MAIN
  5
6E05
 10
-5.632
 20
13.519
 30
25.981
 70
   192
  0
VERTEX
  8
12PIA05-MAIN
  5
6E06
 10
-5.632
 20
16.295
 30
22.249
 70
   192
  0
VERTEX
  8
12PIA05-MAIN
  5
6E07
 10
-5.632
 20
16.789
 30
22.644
 70
   192
  0
VERTEX
  8
12PIA05-MAIN
  5
6E08
 10
-5.632
 20
17.104
 30
23.635
 70
   192
  0
VERTEX
  8
12PIA05-MAIN
  5
6E09
 10
-5.632
 20
17.412
 30
24.107
 70
   192
  0
VERTEX
  8
12PIA05-MAIN
  5
6E0A
 10
-5.632
 20
17.893
 30
24.462
 70
   192
  0
VERTEX
  8
12PIA05-MAIN
  5
6E0B
 10
-5.632
 20
19.385
 30
24.995
 70
   192
  0
VERTEX
  8
12PIA05-MAIN
  5
6E0C
 10
-5.632
 20
19.704
 30
25.331
 70
   192
  0
VERTEX
  8
12PIA05-MAIN
  5
6E0D
 10
-5.632
 20
19.885
 30
25.981
 70
   192
  0
VERTEX
  8
12PIA05-MAIN
  5
6E0E
 10
-5.632
 20
7.154
 30
25.981
 70
   192
  0
VERTEX
  8
12PIA05-MAIN
  5
6E0F
 10
-5.632
 20
7.334
 30
25.331
 70
   192
  0
VERTEX
  8
12PIA05-MAIN
  5
6E10
 10
-5.632
 20
7.655
 30
24.995
 70
   192
  0
VERTEX
  8
12PIA05-MAIN
  5
6E11
 10
-5.632
 20
9.146
 30
24.462
 70
   192
  0
VERTEX
  8
12PIA05-MAIN
  5
6E12
 10
-5.632
 20
9.626
 30
24.107
 70
   192
  0
VERTEX
  8
12PIA05-MAIN
  5
6E13
 10
-5.632
 20
9.936
 30
23.635
 70
   192
  0
VERTEX
  8
12PIA05-MAIN
  5
6E14
 10
-5.632
 20
10.25
 30
22.644
 70
   192
  0
VERTEX
  8
12PIA05-MAIN
  5
6E15
 10
-5.632
 20
10.744
 30
22.249
 70
   192
  0
VERTEX
  8
12PIA05-MAIN
  5
6E16
 10
-5.632
 20
11.472
 30
22.184
 70
   192
  0
VERTEX
  8
12PIA05-MAIN
  5
6E17
 10
-5.632
 20
11.472
 30
21.17
 70
   192
  0
VERTEX
  8
12PIA05-MAIN
  5
6E18
 10
0.0
 20
0.0
 30
0.0
 70
   128
 71
     1
 72
    -2
 73
     3
  0
VERTEX
  8
12PIA05-MAIN
  5
6E19
 10
0.0
 20
0.0
 30
0.0
 70
   128
 71
     4
 72
    -3
 73
     2
  0
VERTEX
  8
12PIA05-MAIN
  5
6E1A
 10
0.0
 20
0.0
 30
0.0
 70
   128
 71
     5
 72
    -6
 73
     7
  0
VERTEX
  8
12PIA05-MAIN
  5
6E1B
 10
0.0
 20
0.0
 30
0.0
 70
   128
 71
     8
 72
    -7
 73
     6
  0
VERTEX
  8
12PIA05-MAIN
  5
6E1C
 10
0.0
 20
0.0
 30
0.0
 70
   128
 71
     9
 72
    10
 73
   -11
  0
VERTEX
  8
12PIA05-MAIN
  5
6E1D
 10
0.0
 20
0.0
 30
0.0
 70
   128
 71
    11
 72
    12
 73
    -9
  0
VERTEX
  8
12PIA05-MAIN
  5
6E1E
 10
0.0
 20
0.0
 30
0.0
 70
   128
 71
    13
 72
    14
 73
   -15
  0
VERTEX
  8
12PIA05-MAIN
  5
6E1F
 10
0.0
 20
0.0
 30
0.0
 70
   128
 71
    15
 72
    16
 73
   -13
  0
VERTEX
  8
12PIA05-MAIN
  5
6E20
 10
0.0
 20
0.0
 30
0.0
 70
   128
 71
     9
 72
    12
 73
    17
  0
VERTEX
  8
12PIA05-MAIN
  5
6E21
 10
0.0
 20
0.0
 30
0.0
 70
   128
 71
     4
 72
     2
 73
    17
  0
VERTEX
  8
12PIA05-MAIN
  5
6E22
 10
0.0
 20
0.0
 30
0.0
 70
   128
 71
     2
 72
     9
 73
    17
  0
VERTEX
  8
12PIA05-MAIN
  5
6E23
 10
0.0
 20
0.0
 30
0.0
 70
   128
 71
    18
 72
    19
 73
    20
  0
VERTEX
  8
12PIA05-MAIN
  5
6E24
 10
0.0
 20
0.0
 30
0.0
 70
   128
 71
    19
 72
    21
 73
    20
  0
VERTEX
  8
12PIA05-MAIN
  5
6E25
 10
0.0
 20
0.0
 30
0.0
 70
   128
 71
    21
 72
    22
 73
    20
  0
VERTEX
  8
12PIA05-MAIN
  5
6E26
 10
0.0
 20
0.0
 30
0.0
 70
   128
 71
    13
 72
    16
 73
    23
  0
VERTEX
  8
12PIA05-MAIN
  5
6E27
 10
0.0
 20
0.0
 30
0.0
 70
   128
 71
     8
 72
     6
 73
    23
  0
VERTEX
  8
12PIA05-MAIN
  5
6E28
 10
0.0
 20
0.0
 30
0.0
 70
   128
 71
     6
 72
    13
 73
    23
  0
VERTEX
  8
12PIA05-MAIN
  5
6E29
 10
0.0
 20
0.0
 30
0.0
 70
   128
 71
    24
 72
    25
 73
    26
  0
VERTEX
  8
12PIA05-MAIN
  5
6E2A
 10
0.0
 20
0.0
 30
0.0
 70
   128
 71
    25
 72
    27
 73
    26
  0
VERTEX
  8
12PIA05-MAIN
  5
6E2B
 10
0.0
 20
0.0
 30
0.0
 70
   128
 71
    27
 72
    28
 73
    26
  0
VERTEX
  8
12PIA05-MAIN
  5
6E2C
 10
0.0
 20
0.0
 30
0.0
 70
   128
 71
    29
 72
    30
 73
    31
  0
VERTEX
  8
12PIA05-MAIN
  5
6E2D
 10
0.0
 20
0.0
 30
0.0
 70
   128
 71
    30
 72
    32
 73
    31
  0
VERTEX
  8
12PIA05-MAIN
  5
6E2E
 10
0.0
 20
0.0
 30
0.0
 70
   128
 71
    32
 72
    33
 73
    31
  0
VERTEX
  8
12PIA05-MAIN
  5
6E2F
 10
0.0
 20
0.0
 30
0.0
 70
   128
 71
    33
 72
    34
 73
    31
  0
VERTEX
  8
12PIA05-MAIN
  5
6E30
 10
0.0
 20
0.0
 30
0.0
 70
   128
 71
    34
 72
    35
 73
    31
  0
VERTEX
  8
12PIA05-MAIN
  5
6E31
 10
0.0
 20
0.0
 30
0.0
 70
   128
 71
    35
 72
    36
 73
    31
  0
VERTEX
  8
12PIA05-MAIN
  5
6E32
 10
0.0
 20
0.0
 30
0.0
 70
   128
 71
    36
 72
    37
 73
    31
  0
VERTEX
  8
12PIA05-MAIN
  5
6E33
 10
0.0
 20
0.0
 30
0.0
 70
   128
 71
    37
 72
    38
 73
    31
  0
VERTEX
  8
12PIA05-MAIN
  5
6E34
 10
0.0
 20
0.0
 30
0.0
 70
   128
 71
    38
 72
    39
 73
    31
  0
VERTEX
  8
12PIA05-MAIN
  5
6E35
 10
0.0
 20
0.0
 30
0.0
 70
   128
 71
    39
 72
    40
 73
    31
  0
VERTEX
  8
12PIA05-MAIN
  5
6E36
 10
0.0
 20
0.0
 30
0.0
 70
   128
 71
    40
 72
    41
 73
    31
  0
VERTEX
  8
12PIA05-MAIN
  5
6E37
 10
0.0
 20
0.0
 30
0.0
 70
   128
 71
    41
 72
    42
 73
    31
  0
VERTEX
  8
12PIA05-MAIN
  5
6E38
 10
0.0
 20
0.0
 30
0.0
 70
   128
 71
    42
 72
    43
 73
    31
  0
VERTEX
  8
12PIA05-MAIN
  5
6E39
 10
0.0
 20
0.0
 30
0.0
 70
   128
 71
    43
 72
    44
 73
    31
  0
VERTEX
  8
12PIA05-MAIN
  5
6E3A
 10
0.0
 20
0.0
 30
0.0
 70
   128
 71
    44
 72
    45
 73
    31
  0
VERTEX
  8
12PIA05-MAIN
  5
6E3B
 10
0.0
 20
0.0
 30
0.0
 70
   128
 71
    45
 72
    46
 73
    31
  0
VERTEX
  8
12PIA05-MAIN
  5
6E3C
 10
0.0
 20
0.0
 30
0.0
 70
   128
 71
    46
 72
    47
 73
    31
  0
VERTEX
  8
12PIA05-MAIN
  5
6E3D
 10
0.0
 20
0.0
 30
0.0
 70
   128
 71
    47
 72
    48
 73
    31
  0
VERTEX
  8
12PIA05-MAIN
  5
6E3E
 10
0.0
 20
0.0
 30
0.0
 70
   128
 71
    48
 72
    49
 73
    31
  0
VERTEX
  8
12PIA05-MAIN
  5
6E3F
 10
0.0
 20
0.0
 30
0.0
 70
   128
 71
    49
 72
    29
 73
    31
  0
VERTEX
  8
12PIA05-MAIN
  5
6E40
 10
0.0
 20
0.0
 30
0.0
 70
   128
 71
    50
 72
    51
 73
    52
  0
VERTEX
  8
12PIA05-MAIN
  5
6E41
 10
0.0
 20
0.0
 30
0.0
 70
   128
 71
    51
 72
    53
 73
    52
  0
VERTEX
  8
12PIA05-MAIN
  5
6E42
 10
0.0
 20
0.0
 30
0.0
 70
   128
 71
    53
 72
    54
 73
    52
  0
VERTEX
  8
12PIA05-MAIN
  5
6E43
 10
0.0
 20
0.0
 30
0.0
 70
   128
 71
    54
 72
    55
 73
    52
  0
VERTEX
  8
12PIA05-MAIN
  5
6E44
 10
0.0
 20
0.0
 30
0.0
 70
   128
 71
    55
 72
    56
 73
    52
  0
VERTEX
  8
12PIA05-MAIN
  5
6E45
 10
0.0
 20
0.0
 30
0.0
 70
   128
 71
    56
 72
    57
 73
    52
  0
VERTEX
  8
12PIA05-MAIN
  5
6E46
 10
0.0
 20
0.0
 30
0.0
 70
   128
 71
    57
 72
    58
 73
    52
  0
VERTEX
  8
12PIA05-MAIN
  5
6E47
 10
0.0
 20
0.0
 30
0.0
 70
   128
 71
    58
 72
    59
 73
    52
  0
VERTEX
  8
12PIA05-MAIN
  5
6E48
 10
0.0
 20
0.0
 30
0.0
 70
   128
 71
    59
 72
    60
 73
    52
  0
VERTEX
  8
12PIA05-MAIN
  5
6E49
 10
0.0
 20
0.0
 30
0.0
 70
   128
 71
    60
 72
    61
 73
    52
  0
VERTEX
  8
12PIA05-MAIN
  5
6E4A
 10
0.0
 20
0.0
 30
0.0
 70
   128
 71
    61
 72
    62
 73
    52
  0
VERTEX
  8
12PIA05-MAIN
  5
6E4B
 10
0.0
 20
0.0
 30
0.0
 70
   128
 71
    62
 72
    63
 73
    52
  0
VERTEX
  8
12PIA05-MAIN
  5
6E4C
 10
0.0
 20
0.0
 30
0.0
 70
   128
 71
    63
 72
    64
 73
    52
  0
VERTEX
  8
12PIA05-MAIN
  5
6E4D
 10
0.0
 20
0.0
 30
0.0
 70
   128
 71
    64
 72
    65
 73
    52
  0
VERTEX
  8
12PIA05-MAIN
  5
6E4E
 10
0.0
 20
0.0
 30
0.0
 70
   128
 71
    65
 72
    66
 73
    52
  0
VERTEX
  8
12PIA05-MAIN
  5
6E4F
 10
0.0
 20
0.0
 30
0.0
 70
   128
 71
    66
 72
    67
 73
    52
  0
VERTEX
  8
12PIA05-MAIN
  5
6E50
 10
0.0
 20
0.0
 30
0.0
 70
   128
 71
    67
 72
    68
 73
    52
  0
VERTEX
  8
12PIA05-MAIN
  5
6E51
 10
0.0
 20
0.0
 30
0.0
 70
   128
 71
    68
 72
    69
 73
    52
  0
VERTEX
  8
12PIA05-MAIN
  5
6E52
 10
0.0
 20
0.0
 30
0.0
 70
   128
 71
    69
 72
    70
 73
    52
  0
VERTEX
  8
12PIA05-MAIN
  5
6E53
 10
0.0
 20
0.0
 30
0.0
 70
   128
 71
    70
 72
    50
 73
    52
  0
SEQEND
  8
12PIA05-MAIN
  5
6E54
  0
POLYLINE
  8
12PIA05-MAIN
  5
6E55
 66
     1
 10
0.0
 20
0.0
 30
0.0
 70
    64
 71
    44
 72
    24
1001
AVE_ENTITY_MATERIAL
1002
{
1000

1002
{
1071
        0
1070
     0
1070
     0
1002
{
1070
     0
1070
     0
1070
     0
1040
0.0
1002
}
1070
     0
1070
     0
1002
{
1002
}
1002
}
1002
{
1002
}
1002
{
1002
}
1011
0.0
1021
49.944
1031
0.0
1011
1.0
1021
49.944
1031
0.0
1011
0.0
1021
48.944
1031
0.0
1011
0.0
1021
49.944
1031
1.0
1002
}
1001
AVE_FINISH
1002
{
1070
     0
1005
6773
1002
}
  0
VERTEX
  8
12PIA05-MAIN
  5
6E56
 10
62.74
 20
-0.54
 30
25.982
 70
   192
  0
VERTEX
  8
12PIA05-MAIN
  5
6E57
 10
50.788
 20
-3.528
 30
25.982
 70
   192
  0
VERTEX
  8
12PIA05-MAIN
  5
6E58
 10
62.74
 20
-3.528
 30
25.982
 70
   192
  0
VERTEX
  8
12PIA05-MAIN
  5
6E59
 10
50.788
 20
-0.54
 30
25.981
 70
   192
  0
VERTEX
  8
12PIA05-MAIN
  5
6E5A
 10
59.74
 20
-0.54
 30
31.957
 70
   192
  0
VERTEX
  8
12PIA05-MAIN
  5
6E5B
 10
60.766
 20
-3.528
 30
31.741
 70
   192
  0
VERTEX
  8
12PIA05-MAIN
  5
6E5C
 10
59.74
 20
-3.528
 30
31.958
 70
   192
  0
VERTEX
  8
12PIA05-MAIN
  5
6E5D
 10
60.766
 20
-0.54
 30
31.741
 70
   192
  0
VERTEX
  8
12PIA05-MAIN
  5
6E5E
 10
57.251
 20
-0.54
 30
32.012
 70
   192
  0
VERTEX
  8
12PIA05-MAIN
  5
6E5F
 10
57.251
 20
-3.528
 30
32.012
 70
   192
  0
VERTEX
  8
12PIA05-MAIN
  5
6E60
 10
56.272
 20
-0.54
 30
32.44
 70
   192
  0
VERTEX
  8
12PIA05-MAIN
  5
6E61
 10
56.272
 20
-3.528
 30
32.44
 70
   192
  0
VERTEX
  8
12PIA05-MAIN
  5
6E62
 10
54.772
 20
-0.54
 30
37.934
 70
   192
  0
VERTEX
  8
12PIA05-MAIN
  5
6E63
 10
50.788
 20
-0.54
 30
37.934
 70
   192
  0
VERTEX
  8
12PIA05-MAIN
  5
6E64
 10
50.788
 20
-3.528
 30
37.934
 70
   192
  0
VERTEX
  8
12PIA05-MAIN
  5
6E65
 10
54.772
 20
-3.528
 30
37.934
 70
   192
  0
VERTEX
  8
12PIA05-MAIN
  5
6E66
 10
57.942
 20
-2.94
 30
24.463
 70
   192
  0
VERTEX
  8
12PIA05-MAIN
  5
6E67
 10
59.826
 20
-2.94
 30
24.996
 70
   192
  0
VERTEX
  8
12PIA05-MAIN
  5
6E68
 10
57.942
 20
-0.44
 30
24.463
 70
   192
  0
VERTEX
  8
12PIA05-MAIN
  5
6E69
 10
59.826
 20
-0.44
 30
24.996
 70
   192
  0
VERTEX
  8
12PIA05-MAIN
  5
6E6A
 10
55.004
 20
-2.94
 30
22.186
 70
   192
  0
VERTEX
  8
12PIA05-MAIN
  5
6E6B
 10
55.925
 20
-2.94
 30
22.25
 70
   192
  0
VERTEX
  8
12PIA05-MAIN
  5
6E6C
 10
55.004
 20
-0.44
 30
22.186
 70
   192
  0
VERTEX
  8
12PIA05-MAIN
  5
6E6D
 10
55.925
 20
-0.44
 30
22.25
 70
   192
  0
VERTEX
  8
12PIA05-MAIN
  5
6E6E
 10
54.202
 20
-2.94
 30
21.172
 70
   192
  0
VERTEX
  8
12PIA05-MAIN
  5
6E6F
 10
55.004
 20
-2.94
 30
21.172
 70
   192
  0
VERTEX
  8
12PIA05-MAIN
  5
6E70
 10
54.202
 20
-0.44
 30
21.172
 70
   192
  0
VERTEX
  8
12PIA05-MAIN
  5
6E71
 10
55.004
 20
-0.44
 30
21.172
 70
   192
  0
VERTEX
  8
12PIA05-MAIN
  5
6E72
 10
49.835
 20
-2.94
 30
21.172
 70
   192
  0
VERTEX
  8
12PIA05-MAIN
  5
6E73
 10
50.639
 20
-2.94
 30
21.172
 70
   192
  0
VERTEX
  8
12PIA05-MAIN
  5
6E74
 10
49.835
 20
-0.44
 30
21.172
 70
   192
  0
VERTEX
  8
12PIA05-MAIN
  5
6E75
 10
50.639
 20
-0.44
 30
21.172
 70
   192
  0
VERTEX
  8
12PIA05-MAIN
  5
6E76
 10
49.835
 20
-2.94
 30
22.186
 70
   192
  0
VERTEX
  8
12PIA05-MAIN
  5
6E77
 10
48.916
 20
-2.94
 30
22.25
 70
   192
  0
VERTEX
  8
12PIA05-MAIN
  5
6E78
 10
48.916
 20
-0.44
 30
22.25
 70
   192
  0
VERTEX
  8
12PIA05-MAIN
  5
6E79
 10
49.835
 20
-0.44
 30
22.186
 70
   192
  0
VERTEX
  8
12PIA05-MAIN
  5
6E7A
 10
46.898
 20
-2.94
 30
24.463
 70
   192
  0
VERTEX
  8
12PIA05-MAIN
  5
6E7B
 10
45.014
 20
-2.94
 30
24.996
 70
   192
  0
VERTEX
  8
12PIA05-MAIN
  5
6E7C
 10
45.014
 20
-0.44
 30
24.996
 70
   192
  0
VERTEX
  8
12PIA05-MAIN
  5
6E7D
 10
46.898
 20
-0.44
 30
24.463
 70
   192
  0
VERTEX
  8
12PIA05-MAIN
  5
6E7E
 10
44.383
 20
-2.94
 30
25.982
 70
   192
  0
VERTEX
  8
12PIA05-MAIN
  5
6E7F
 10
60.457
 20
-2.94
 30
25.982
 70
   192
  0
VERTEX
  8
12PIA05-MAIN
  5
6E80
 10
60.457
 20
-0.44
 30
25.982
 70
   192
  0
VERTEX
  8
12PIA05-MAIN
  5
6E81
 10
44.383
 20
-0.44
 30
25.982
 70
   192
  0
VERTEX
  8
12PIA05-MAIN
  5
6E82
 10
0.0
 20
0.0
 30
0.0
 70
   128
 71
    -1
 72
     2
 73
     3
  0
VERTEX
  8
12PIA05-MAIN
  5
6E83
 10
0.0
 20
0.0
 30
0.0
 70
   128
 71
     4
 72
    -2
 73
     1
  0
VERTEX
  8
12PIA05-MAIN
  5
6E84
 10
0.0
 20
0.0
 30
0.0
 70
   128
 71
    -5
 72
     6
 73
     7
  0
VERTEX
  8
12PIA05-MAIN
  5
6E85
 10
0.0
 20
0.0
 30
0.0
 70
   128
 71
     8
 72
    -6
 73
     5
  0
VERTEX
  8
12PIA05-MAIN
  5
6E86
 10
0.0
 20
0.0
 30
0.0
 70
   128
 71
    -9
 72
     7
 73
    10
  0
VERTEX
  8
12PIA05-MAIN
  5
6E87
 10
0.0
 20
0.0
 30
0.0
 70
   128
 71
     5
 72
    -7
 73
     9
  0
VERTEX
  8
12PIA05-MAIN
  5
6E88
 10
0.0
 20
0.0
 30
0.0
 70
   128
 71
    11
 72
    -9
 73
    12
  0
VERTEX
  8
12PIA05-MAIN
  5
6E89
 10
0.0
 20
0.0
 30
0.0
 70
   128
 71
    10
 72
   -12
 73
     9
  0
VERTEX
  8
12PIA05-MAIN
  5
6E8A
 10
0.0
 20
0.0
 30
0.0
 70
   128
 71
    13
 72
    14
 73
   -15
  0
VERTEX
  8
12PIA05-MAIN
  5
6E8B
 10
0.0
 20
0.0
 30
0.0
 70
   128
 71
    15
 72
    16
 73
   -13
  0
VERTEX
  8
12PIA05-MAIN
  5
6E8C
 10
0.0
 20
0.0
 30
0.0
 70
   128
 71
    17
 72
   -18
 73
    19
  0
VERTEX
  8
12PIA05-MAIN
  5
6E8D
 10
0.0
 20
0.0
 30
0.0
 70
   128
 71
    20
 72
   -19
 73
    18
  0
VERTEX
  8
12PIA05-MAIN
  5
6E8E
 10
0.0
 20
0.0
 30
0.0
 70
   128
 71
    21
 72
   -22
 73
    23
  0
VERTEX
  8
12PIA05-MAIN
  5
6E8F
 10
0.0
 20
0.0
 30
0.0
 70
   128
 71
    24
 72
   -23
 73
    22
  0
VERTEX
  8
12PIA05-MAIN
  5
6E90
 10
0.0
 20
0.0
 30
0.0
 70
   128
 71
    25
 72
   -26
 73
    27
  0
VERTEX
  8
12PIA05-MAIN
  5
6E91
 10
0.0
 20
0.0
 30
0.0
 70
   128
 71
    28
 72
   -27
 73
    26
  0
VERTEX
  8
12PIA05-MAIN
  5
6E92
 10
0.0
 20
0.0
 30
0.0
 70
   128
 71
    29
 72
   -30
 73
    31
  0
VERTEX
  8
12PIA05-MAIN
  5
6E93
 10
0.0
 20
0.0
 30
0.0
 70
   128
 71
    32
 72
   -31
 73
    30
  0
VERTEX
  8
12PIA05-MAIN
  5
6E94
 10
0.0
 20
0.0
 30
0.0
 70
   128
 71
    33
 72
    34
 73
   -35
  0
VERTEX
  8
12PIA05-MAIN
  5
6E95
 10
0.0
 20
0.0
 30
0.0
 70
   128
 71
    35
 72
    36
 73
   -33
  0
VERTEX
  8
12PIA05-MAIN
  5
6E96
 10
0.0
 20
0.0
 30
0.0
 70
   128
 71
    37
 72
    38
 73
   -39
  0
VERTEX
  8
12PIA05-MAIN
  5
6E97
 10
0.0
 20
0.0
 30
0.0
 70
   128
 71
    39
 72
    40
 73
   -37
  0
VERTEX
  8
12PIA05-MAIN
  5
6E98
 10
0.0
 20
0.0
 30
0.0
 70
   128
 71
    41
 72
    42
 73
   -43
  0
VERTEX
  8
12PIA05-MAIN
  5
6E99
 10
0.0
 20
0.0
 30
0.0
 70
   128
 71
    43
 72
    44
 73
   -41
  0
SEQEND
  8
12PIA05-MAIN
  5
6E9A
  0
ENDSEC
  0
EOF
